Song name
# A B C D E F G H I J K L M N O P Q R S T U V W X Y Z

Gwen Stefani - Luxurious tab

Highlighted       Show chord diagrams
Artist: Gwen Stefani
Song: Luxurious
Tabbed by: Carlos Ramirez
Tuning: Standard


(the whole song is based on 5 chords)

 CHORUS:
   Fmaj7
e|--0---------------------------------------x-----------------------------|
B|--1---------------------------------------6-----------------------------|
G|--2---------------------------------------4-----------------------------|
D|--3---------------------------------------6-----------------------------|
A|--3---------------------------------------5-----------------------------|
E|--1---------------------------------------0-----------------------------|
   working so hard every night and day and now we get the payback


  Am7                                Gm7            C
e|-0----------------------------------3-------------0---------------------|
B|-1----------------------------------3-------------1---------------------|
G|-0----------------------------------3-------------0---------------------|
D|-2----------------------------------3-------------2---------------------|
A|-0----------------------------------5-------------3---------------------|
E|------------------------------------3-----------------------------------|
  trying so hard saving up the paper now we get to lay back

   Fmaj7
e|--0---------------------------------------x-----------------------------|
B|--1---------------------------------------6-----------------------------|
G|--2---------------------------------------4-----------------------------|
D|--3---------------------------------------6-----------------------------|
A|--3---------------------------------------5-----------------------------|
E|--1---------------------------------------0-----------------------------|
   working so hard every night and day and now we get the payback


        Am7            Gm7     C
e|-------0--------------3------0-------|
B|-------1--------------3------1-------|
G|-------0--------------3------0-------|
D|-------2--------------3------2-------|
A|-------0--------------5------3-------|
E|----------------------3--------------|
           the payback    the payback

VERSE:
                                                                     
    Fmaj7                                  Am7                   Gm7  C
e|---0-----------------x--------------------0---------------------3---0--|
B|---1-----------------6--------------------1---------------------3---1--|
G|---2-----------------4--------------------0---------------------3---0--|
D|---3-----------------6--------------------2---------------------3---2--|
A|---3-----------------5--------------------0---------------------5---3--|
E|---1-----------------0------------------------------------------3------|
     champagne kisses hold me       in our lap    of         luxury
  I only wanna fly first class desires     you're    my    limousine
    so elegant    the way we ride     our passion it just       multiplies
    there's platinum lightning in the sky look I'm living like a queen
  this kind of       love is getting expensive we know           how to
   we're        luxurious like egyptian    cotton             |_live baby


chorus, verse, etc...
Tap to rate this tab
# A B C D E F G H I J K L M N O P Q R S T U V W X Y Z