Gyllene Tider - Heartland tab

Tabbed for Standard Tuning
Tabbed by Jeppe
Songwriter: Per Gessle
BPM: 95


Rythm Fig 1
(let ring)
e-----------------------------------------------------------------------------|
B-0-------0-----------1-------1----------0-------0----------1-------1--0------|
G----0------0----0-------0------0---0-------0------0---0------0----------2-0--|
D------0------0-------2----2------2------------0------0-----2----2------------|
A-----------------------------------------------------------------------------|
E-3-------------------3------------------3------------------3-----------------|

play this x 3

Rythm Fig 2
(let ring)
e-----------------------------------------------------------3--2-0---------|
B--1-----1------1-----0--------0-------1-------1-----1---------------------|
G----2------2------------0---0---0---------2-----2-------------------------|
D------2------2------------2-------0---------2-----2-----------------------|
A--0-----------------------------------0-----------------------------------|
E---------------------0-------------------------------------0--0--0--------|

e--------------------------------------------------------------------------|
B--------1-----------3------3----3--1-------3------------------------------|
G------0----0---0------0--------------------2------------------------------|
D----2--------2----------0----------0-------0------------------------------|
A--3-----------------------------------------------------------------------|
E--------------------3-----------3-----------------------------------------|


Rythm Fig 1
I take you down to a place you've never been
A heart in the city you have never seen
Rythm Fig 2
Your wine will last all night
behind those neon lights
just take me by the hand, here we go...
Tap to rate this tab
 
# A B C D E F G H I J K L M N O P Q R S T U V W X Y Z