Gyllene Tider - When Loves On The Phone chords

Highlighted       Show chord diagrams
Tabebd by Jeppe
Tabbed for Standard Tuning
Songwriter: Per Gessle
BPM: 125

Intro
Bm  |G  |D  |A  x 4

Piano riff
e------------------------------------------------------
B--777---------888---------777----------555------------
G------777-44------777---------777----------666--------  x4
D----------------------55----------77-----------77-----
A------------------------------------------------------
E------------------------------------------------------

Before verse starts
G  Bm  |Bm  |G  A  |A

Verse 1
G                D
Some situations need a little heart
G                    D        A
A tenderness that's hard to understand
 Bm                 G
The falling in love for a start
D                     A
can easily turn to the fall of a man 

G                       D
You can't run and hide even if you want to
G                       D          A
Things must be done that should be done
 Bm                         G
You can't run and hide when love's got you tangled
D                      A
up on a tightrope your heart's on the run 

Chorus
                   Bm
When love's on the phone
        G
You just have to answer
D                           A
There's no way you can hang up
                   Bm
When love's on the phone
        G
You just have to answer
       D                       A
Well, are you ready to fall in love? 

Interlude
Bm  |G  |D  |A

Piano riff
e------------------------------------------------------
B--777---------888---------777----------555------------
G------777-44------777---------777----------666--------  x1
D----------------------55----------77-----------77-----
A------------------------------------------------------
E------------------------------------------------------

Verse 2
G             D
And everybody needs a reason
G                   D        A
could be a dream of fire and ice
    Bm             G
And you and me, we need each other
   D                A
we need to be on each other's minds

G                    D
Yes, some situations need a little heart
G                           D       A
to take to the sea with the sails unfurled
Bm                 G
The falling in love for a start
D                     A
can easily turn to the fall of a girl

Chorus
                   Bm
When love's on the phone
        G
You just have to answer
D                           A
There's no way you can hang up
                   Bm
When love's on the phone
        G
You just have to answer
       D                       A
Well, are you ready to fall in love? 

Trumpet Solo

C#m  |A   |C#m  |A  |C  |G  |D  |A

Chorus
                   Bm
When love's on the phone
        G
You just have to answer
D                           A
There's no way you can hang up
                   Bm
When love's on the phone
        G
You just have to answer
       D                       A
Well, are you ready to fall in love?    x 2 

Interlude
Bm  |G  |D  |A  x 4

Piano riff
e------------------------------------------------------
B--777---------888---------777----------555------------
G------777-44------777---------777----------666--------  x2
D----------------------55----------77-----------77-----
A------------------------------------------------------
E------------------------------------------------------

Outro

G  Bm  |Bm  |G  A  |A
Tap to rate this tab
 
# A B C D E F G H I J K L M N O P Q R S T U V W X Y Z