Song name
# A B C D E F G H I J K L M N O P Q R S T U V W X Y Z

Gyllene Tider - Solsken tab

Help us improve GuitareTab! Take a short survey!
Tabbed by: Morgan Ljungkvist, Halmstad(the home of Gyllene Tider)
Intro and Vers and solo: E A B
Chorus: Fm D A E F D A B
Outro: G C E x 4 + G

                  E      A
Jag knyter upp mina skor   
 B            E                         A
Jag fller upp min krage s den blir stor
B              E               A          B       E   A B
Jag gr och funderar p var hon bor, och vad hon gr  
(Play like this every verse)

Det verkar som om stan
sett annorlunda ut mest hela dagen
jag gr omkring hr ensam utan plan, helt utanfr

Chorus:
Fm               D                A
Och det r hst och det r ganska kallt 
E                           F
s r det solsken dr jag gr.
D                   A         B
Hon sprider solsken verallt

Det r rtt lngesen,
s lnge att ja knner knappt igen
dem knslorna som smugit fram igen, var har dem varit?

Chorus:
Fm               D                A
Fast det r natt och det r ganska kallt 
E                           F
s r det solsken dr jag gr.
D                   A         B
Hon sprider solsken verallt

Solo:
e---9-9-9-9-11-9--7~-9-9-9-11-9-9-11-------------------------11-------------|
B------------------------------------11-9--7-7-9-7-9-11^-11-11-9-11-9-11-9--|
G---------------------------------------------------------------------------|
D---------------------------------------------------------------------------|
A---------------------------------------------------------------------------|
E---------------------------------------------------------------------------|

e---------------------------------------------------------------------------|
B--6-7-4-5-2-3-0------------------------------------------------------------|
G-----------------0-2-4^-4^-4^-4^-4^-4^-4^----------------------------------|
D------------------------------------------4-----3/4~------3/4~-------------|
A---------------------------------------------------------------------------|
E---------------------------------------------------------------------------|

Vers 4
Jag knyter mina skor, 
Jag fller upp min krage s den blir stor
jag gr omkring funderar p var hon bor och vad hon gr

Chorus
fast det r hst och det r ganska kallt Fm D A
s r det solsken dr jag gr E F
Hon sprider solsken verallt D A B
ja det r solsken dr jag gr E F
hon sprider solsken verallt D A B

Outro: G C E x4 + G

Related for Solsken tab