Song name
# A B C D E F G H I J K L M N O P Q R S T U V W X Y Z

Gyllene Tider - En Sten Vid En Sj I En Skog tab

Gyllene Tider - Sten vid en sjö i en skog SOLO


Tabbed By: Niklas Hansson
email: niklas_752@hotmail.com


Solo:

e-10--10-----10----10--10---------------------------------------------------|
b-----------8-----8-------------8----8---10-10-8-10-8-10-8-b10-b10-b10-b10--|
g---------------------------------------------------------------------------|
d---------------------------------------------------------------------------|
a---------------------------------------------------------------------------|
E---------------------------------------------------------------------------|

e-10--10-----10----10--10---------------------------------------------------|
b-----------8-----8-------------8----8/12--12-12-12-13-12-10-12 b10---------|
g---------------------------------------------------------------------------|
d---------------------------------------------------------------------------|
a---------------------------------------------------------------------------|
E---------------------------------------------------------------------------|
Tap to rate this tab
 
# A B C D E F G H I J K L M N O P Q R S T U V W X Y Z