Song name
# A B C D E F G H I J K L M N O P Q R S T U V W X Y Z

Gyllene Tider - Vandrdr I Ett Sommarregn tab

INTRO:

-Riff 1
-Riff 2
-Riff 1
-Riff 2

Chords:
  Bb  Dm  G  C   Bb5  D5  D#5  C5
e-6---5---3--8----------------------------------|
b-6---6---3--8----------------------------------|
g-7---7---4--9--------7---8---------------------|
d-8---7---5--10--8----7---8----10---------------|
a-8---5---5--10--8----5---6----10---------------|
E-6-------3--8---6-------------8----------------|


Riff 1
e------------------------------------------------------------|
b---------6-----6--------1-----1-----------1--1-1-1-1-1-1-1--|
g-------7-----5--------2-----0-----0-----0----0-0-0-0-0-0-0--|
d-5-7-8-----7-----5--3-----2-----0-----2------2-2-2-3-3-3-2--|
a------------------------------------3--------3-3-3-3-3-3-3--|
E------------------------------------------------------------|

Riff 2
e------------------------------------------------------------|
b---------6-----6--------1-----5-----------1--1-1-1-1-1-1-1--|
g-------7-----5--------2-----5-----7-----0----0-0-0-0-0-0-0--|
d-5-7-8-----7-----5--3-----5-----7-----2------2-2-2-3-3-3-2--|
a------------------------------------3--------3-3-3-3-3-3-3--|
E------------------------------------------------------------|

Ending:
e------------------------------------------------|
b------------------------------------------------|
g-7-7-----------5-----7---10---------------------|
d-7-7--8-8----5-----7-----10---------------------|
a-5-5--8-8--3-----5-----7-8----------------------|
E------6-6---------------------------------------|
Tap to rate this tab
# A B C D E F G H I J K L M N O P Q R S T U V W X Y Z