Song name
# A B C D E F G H I J K L M N O P Q R S T U V W X Y Z

Gym Class Heroes - Everydays Forecast tab

Song: Everyday's Forecast
Artist: Gym Class Heroes
Tuning: Standard EADGBe
Tabbed by: Matt Turner (mjturner1@gmail.com)

These are the parts I could get. Help is appreciated, this band is underrated and 
SEE THEM LIVE!

Intro

e|-----------7-------------7-|---------------------------7-8-10-8--7h8p7----|
B|-8-----8-----8-------------|--4///7-4///7-8--8/10-8~~------------------8~-|
G|---9-----9-----9---9---9---|----------------------------------------------|
D|-----9---------------9-----|----------------------------------------------|
A|---------------------------|----------------------------------------------|
E|---------------------------|----------------------------------------------|


Fill 1

e|-12p0-12p0-10p0-10p0-8p0-8p0----------------------------------------------|
B|-----------------------------12p0-12p0-8p0-8p0-10p0-10p0-7p0-7p0-8p0-7p0--|
G|--------------------------------------------------------------------------|
D|--------------------------------------------------------------------------|
A|--------------------------------------------------------------------------|
E|--------------------------------------------------------------------------|


Fill 2

e|----------------10~--(10///0)---------------------------------------------|
B|-10-8-7--7/8/7------------------------------------------------------------|
G|----------------7~--------------------------------------------------------|
D|-7--5-6--6/5/6------------------------------------------------------------|
A|--------------------------------------------------------------------------|
E|--------------------------------------------------------------------------|

| /  slide up
| \  slide down
| h  hammer-on
| p  pull-off
| ~  vibrato
| +  harmonic
| x  Mute note
Tap to rate this tab
# A B C D E F G H I J K L M N O P Q R S T U V W X Y Z