Song name
# A B C D E F G H I J K L M N O P Q R S T U V W X Y Z

Gym Class Heroes - Graduation Day tab

Clean w/Delay & Reverb...

Main Riff...
e]-------3-3-3-----------3------3---|
b]-------------1-1-1---1---1--1---1-|
g]-2-2-2----------------------------|
d]----------------------------------|
a]----------------------------------|
E]----------------------------------|

Riff 2...
e]---------------------|
b]-6666-5555-3333-1111-|
g]---------------------|
d]---------------------|
a]---------------------|
E]---------------------|

Last Repeat Of Riff 2..
e]-----------------------3---3---3---3/1~-|
b]-6666-5555-8888/1~---1~-----------------|
g]----------------------------------------|
d]----------------------------------------|
a]----------------------------------------|
E]----------------------------------------|
Tap to rate this tab
# A B C D E F G H I J K L M N O P Q R S T U V W X Y Z