Song name
# A B C D E F G H I J K L M N O P Q R S T U V W X Y Z

Gym Class Heroes - Cupids Chokehold tab

Tabbed by: Mike Lesaski
http://www.youtube.com/user/byramike

Tuning: E G D G B E (Capo 2, F# A E A C# F# relative to capo)
Gym Class Heroes - Cupid's Chokehold
---

This tab is for the arrangement seen here:
http://www.youtube.com/watch?v=5ixTOiR5F6w


This is all from watching what I did in the video.  I tabbed it out like a year later 
to dozens of requests, so some could be a bit off but it'll be close.


TUNING:  Just tune A string down to G (it should match the 3rd fret on your low E string).

All tabs relative to capo 2.

First hit is 7th fret harmonics.


Intro/Choruses
e--------(0)---(0)-------------|
B---7-----5-----3----------0---|
G---7-----6-----4----------0---|
D---0-x2--7--x2-5--x3------0---|
G---x-----6-----4-------4--x---|
E---7-----5----s3-------3--5---|


Verses
e----------------(00)--------------------------------------|
B-------77--------55---------77---------88-------1010------|
G-------77--------66---------77---------xx-------x-x-------|
D-------00-x2-----77--x2----(00)-x2-----99-------9-9-------|
G-------xx----6-6-66-----7-7-77-----7-7-77---7-7-7-7-------|
E---7-7-77-------------------------------------------------|

Verse Second Time
e----------------(00)------------------------------------|
B-------77--------55----------77---------1010-----1010---|
G-------77--------66----------77---------x-x------x-x----|
D-------00-x2-----77---x2----(00)-x2-----9-9------9-9----|
G-------xx----x-x-66------7-7-77-----7-7-7-7----7-7-7----|
E---7-7-77----5-5-55-------------------------------------|

verse Last Time
e----------------(00)--------------------|
B-------77--------55----------77---------|
G-------77--------66----------77---------|
D-------00-x2-----77---x2----(00)-x4-----|
G-------xx----x-x-66------7-7-77---------|
E---7-7-77----5-5-55---------------------|

"Back into her arms once more..."
e--------------------------------------------------------------------*7-----|
B--------------------------------------------------------------------*7-----|
G-----0---0---0---0---0---0---0---0---0---0---0---0---0---0---0---0--*7-----|
D---5---5---5---5---4---4---4---4---0---0---0---0--------------------*7-----|
G---------------------------------------------------3---3---3---3----*7-*12-|
E--------------------------------------------------------------------*7-*12-|

Bridge
e-----------------------------------------------------------------|
B-----------77------77-----7-7---------------------33----33-------|
G-----------77------77-----7-7---------------------44----44-------|
D-----------00------00-----0-0--(5)-(4)-(2)--------00----00--x2---|
G-----------xx------xx-----x-x---------------------xx----xx-------|
E---555-5h7-77--5h7-77-5h7-7-7-----------------0h3-33-33-33-------|

e---------------------------------|
B------33-----33-----33-----33----|
G------22-----00-----00-----00----|
D------00-----22-----22-----00----|
G------xx-----xx-----xx-----33----|
E---22-22--22-22--22-22--22-------| repeat until


"Everywhere I go I keep her picture"
e-------------------------------*7------|
B-------------------------------*7------|
G-------------------------------*7------|
D--4-4-4-4--0-0-0-0--2-2-2-2----*7------|
G----------------------------3--*7------|
E-------------------------------*7------|

Repeat Choruses

Ending part:

e------------------*7----|
B-----------0------*7----|
G-----4-----0------*7----|
D-----5--0--0------*7----|
G-----4--x--x------*7----|
E-----3--5--7------*7----|
Tap to rate this tab
# A B C D E F G H I J K L M N O P Q R S T U V W X Y Z