Song name
# A B C D E F G H I J K L M N O P Q R S T U V W X Y Z

Gym Class Heroes - The Fighter tab

Gym Class Heroes - The Fighter

I Now have Full song tabs at http://www.youtube.com/user/anjelloguitar
Subscribe for more tabs

Intro
    
e|--3-3-3-3-3-3-3-3-----------------------------------------------------------|
B|--3-3-3-3-3-3-3-3---1-1-1-1-1-1-1-1-----------------------1-1-1-1-1-1-1-1---|
G|--------------------2-2-2-2-2-2-2-2----0-0-0-0-0-0-0-0----0-0-0-0-0-0-0-0---|
D|--------------------2-2-2-2-2-2-2-2----2-2-2-2-2-2-2-2----2-2-2-2-2-2-2-2---|
A|--2-2-2-2-2-2-2-2----------------------2-2-2-2-2-2-2-2----3-3-3-3-3-3-3-3---|
E|--3-3-3-3-3-3-3-3-----------------------------------------------------------|
         
.   .   .   .   .   .   .   .        .   .   .   .   .   .   .   .            .
    .   .   .   .   .   .   .            .   .   .   .   .   .   .   .
Verse
e|--3-3-3-3-3-3-3-3-----------------------------------------------------------|
B|--3-3-3-3-3-3-3-3---1-1-1-1-1-1-1-1-----------------------1-1-1-1-1-1-1-1---|
G|--------------------2-2-2-2-2-2-2-2----0-0-0-0-0-0-0-0----0-0-0-0-0-0-0-0---|
D|--------------------2-2-2-2-2-2-2-2----2-2-2-2-2-2-2-2----2-2-2-2-2-2-2-2---|
A|--2-2-2-2-2-2-2-2----------------------2-2-2-2-2-2-2-2----3-3-3-3-3-3-3-3---|
E|--3-3-3-3-3-3-3-3-----------------------------------------------------------|

I Now have Full song tabs at http://www.youtube.com/user/anjelloguitar
Subscribe for more tabs
Tap to rate this tab
# A B C D E F G H I J K L M N O P Q R S T U V W X Y Z