Song name
# A B C D E F G H I J K L M N O P Q R S T U V W X Y Z

Gym Class Heroes - The Fighter tab

Love this song i love the gym class heroes
this is how it is really played by the band, it may not accually sound like the
song, so play along with it on your ipod or whatever
 in the intro u can play an open g insted of the 8 e's in the intro
please comment

4
-  time signature
4
intro
-----------------------5-5-5-5-3-2------------------2-3-3-3-3-3-3-3-3----|
-------------------------------------------------------------------------|
--0-0-0-0-0-0-0-0-2-2----------------------------------------------------|
-----------------------------------2-2-2-2-2-2-2-2-----------------------|
-------------------------------------------------------------------------|
-------------------------------------------------------------------------|
verse
x2
----------------------------------------------------2-3-3-3-3-3-3-3-3---|
------------------------------------------------------------------------|
--0-0-0-0-0-0-0-0-2-2-2-2-2-2-2-2---------------------------------------|
-----------------------------------2-2-2-2-2-2-2-2----------------------|
------------------------------------------------------------------------|
------------------------------------------------------------------------|
pre chorus
----------------------------------------------------2-3-3-3-3-3-3-3-3---|
------------------------------------------------------------------------|
--0-0-0-0-0-0-0-0-2-2-2-2-2-2-2-2---------------------------------------|
-----------------------------------2-2-2-2-2-2-2-2----------------------|
------------------------------------------------------------------------|
------------------------------------------------------------------------|

chorus
x2
----------------------------------------------------2-3-3-3-3-3-3-3-3---|
------------------------------------------------------------------------|
--0-0-0-0-0-0-0-0-2-2-2-2-2-2-2-2---------------------------------------|
-----------------------------------2-2-2-2-2-2-2-2----------------------|
------------------------------------------------------------------------|
------------------------------------------------------------------------|
x2
----------------------------------------------------14-15-15-15-15-15-15-15-15---|
---------------------------------------------------------------------------------|
--0-0-0-0-0-0-0-0-2-2-2-2-2-2-2-2------------------------------------------------|
-----------------------------------2-2-2-2-2-2-2-2-------------------------------|
---------------------------------------------------------------------------------|
---------------------------------------------------------------------------------|

rest for 4 measures
verse 2
----------------------------------------------------2-3-3-3-3-3-3-3-3---|
------------------------------------------------------------------------|
--0-0-0-0-0-0-0-0-2-2-2-2-2-2-2-2---------------------------------------|
-----------------------------------2-2-2-2-2-2-2-2----------------------|
------------------------------------------------------------------------|
------------------------------------------------------------------------|

pre chorus
----------------------------------------------------2-3-3-3-3-3-3-3-3---|
------------------------------------------------------------------------|
--0-0-0-0-0-0-0-0-2-2-2-2-2-2-2-2---------------------------------------|
-----------------------------------2-2-2-2-2-2-2-2----------------------|
------------------------------------------------------------------------|
------------------------------------------------------------------------|

chorus
x2
----------------------------------------------------2-3-3-3-3-3-3-3-3---|
------------------------------------------------------------------------|
--0-0-0-0-0-0-0-0-2-2-2-2-2-2-2-2---------------------------------------|
-----------------------------------2-2-2-2-2-2-2-2----------------------|
------------------------------------------------------------------------|
------------------------------------------------------------------------|
x2
----------------------------------------------------14-15-15-15-15-15-15-15----|
-------------------------------------------------------------------------------|
--0-0-0-0-0-0-0-0-2-2-2-2-2-2-2-2----------------------------------------------|
-----------------------------------2-2-2-2-2-2-2-2-----------------------------|
-------------------------------------------------------------------------------|
-------------------------------------------------------------------------------|

bridge
rest 4 measures

----------------------------------------------------2-3-3-3-3-3-3-3-3---|
------------------------------------------------------------------------|
--0-0-0-0-0-0-0-0-2-2-2-2-2-2-2-2---------------------------------------|
-----------------------------------2-2-2-2-2-2-2-2----------------------|
------------------------------------------------------------------------|
------------------------------------------------------------------------|

chorus
x2
----------------------------------------------------2-3-3-3-3-3-3-3-3---|
------------------------------------------------------------------------|
--0-0-0-0-0-0-0-0-2-2-2-2-2-2-2-2---------------------------------------|
-----------------------------------2-2-2-2-2-2-2-2----------------------|
------------------------------------------------------------------------|
------------------------------------------------------------------------|

x2
----------------------------------------------------14-15-15-15-15-15-15-15----|
-------------------------------------------------------------------------------|
--0-0-0-0-0-0-0-0-2-2-2-2-2-2-2-2----------------------------------------------|
-----------------------------------2-2-2-2-2-2-2-2-----------------------------|
-------------------------------------------------------------------------------|
-------------------------------------------------------------------------------|

dont play the outro

i hope yall enjoyed
Tap to rate this tab
 
# A B C D E F G H I J K L M N O P Q R S T U V W X Y Z