Song name
# A B C D E F G H I J K L M N O P Q R S T U V W X Y Z

Gym Class Heroes - Stereo Hearts tab

Sounds best on electric guitar with lots of distortion.

/ = slide
~ = vibrato

Chorus
-----------------------------------------------------|
/10~-9-7-5-3-2--5-7-5---------5-7-5------------------|
-----------------------7-6-4-6-------7-6-4-6--9------|
-------------------------------------------------9---|
-----------------------------------------------------|
-----------------------------------------------------|


-----------------------------------------------------|
/10~-9-7-5-3-2--5-7-5---------5-7-5------------------|
-----------------------7-6-4-6-------6-6-6-4-2-------|
-----------------------------------------------------|
-----------------------------------------------------|
-----------------------------------------------------|


-----------------------------------------------------|
--5---5---5---5---5---5--5-7-5-----------------------|
----6-------6-------6-----------7-6-4-2--------------|
7-------6-------7------------------------------------|
-----------------------------------------------------|
-----------------------------------------------------|
Tap to rate this tab
# A B C D E F G H I J K L M N O P Q R S T U V W X Y Z