Song name
# A B C D E F G H I J K L M N O P Q R S T U V W X Y Z

Gym Class Heroes - Makeout Club tab

-------------------------------------------------------------------------------
	                Makeout Club - Gym Class Heroes
-------------------------------------------------------------------------------
Tabbed by: Jordan Weissman
Email: jord3nw@aol.com

Tuning:Standard (E A D G B e)
FYI: .=palm mute

Intro/riff played for most of song
e|---------888-000-888----------888-000-888----------777-000-777------------|
B|10-10-10-...-----...-10-10-10-...-----...-10-10-10-...-----...------------|
G|.--.--.--------------.--.--.--------------.--.--.-------------------------|
D|--------------------------------------------------------------------------|
A|--------------------------------------------------------------------------|
E|--------------------------------------------------------------------------|

e|---------777-000-777-----777-000-777-----777-000-777-----10-10-10-000-----|
B|10-10-10-...-----...-999-...-----...-999-...-----...-999-.--.--.------99--|
G|.--.--.--------------...-------------...-------------...--------------..--|
D|--------------------------------------------------------------------------|
A|--------------------------------------------------------------------------|
E|--------------------------------------------------------------------------|

e|10-10-000----0------------------------------------------------------------|
B|.--.------9---------------------------------------------------------------|
G|----------.---------------------------------------------------------------|
D|--------------------------------------------------------------------------|
A|--------------------------------------------------------------------------|
E|--------------------------------------------------------------------------|

beakdown (bass does beats before each riff so its like, dum dum, then the riff each time)
e|------------------------------------------------|-----|-------------------|
B|------1---------------1---------------1---------|-----|-----1-------------|
G|0h2p0---2-0h2---0h2p0---2-0h2---0h2p0---2-0h2---|-2-2-|-0h2---------------|
D|------------------------------------------------|-----|-------------------|
A|--------------0-------------------------------0-|-----|-------------------|
E|------------------------------3-----------------|-----|-------------------|

second part of breakdown it repeats the riff but the last ending is
e|--------------------------------------------------------------------------|
B|-------------------1------------------------------------------------------|
G|1-1-instead of-0h2--------------------------------------------------------|
D|--------------------------------------------------------------------------|
A|--------------------------------------------------------------------------|
E|--------------------------------------------------------------------------|

| /  slide up
| \  slide down
| h  hammer-on
| p  pull-off
| ~  vibrato
| +  harmonic
| x  Mute note
===============================================================================
Tap to rate this tab
# A B C D E F G H I J K L M N O P Q R S T U V W X Y Z