Song name
# A B C D E F G H I J K L M N O P Q R S T U V W X Y Z

Gym Class Heroes - Papercuts tab

*Intro and verse*

Milo plays this right after intro (Delay):
G]--2/7------[


Guitar 1 - Delay
e]--5----6----[]---13-10-8-6--[
B]--6----8----[]---11-8--6-8--[
G]--7----7----[]---10-7--7-7--[
D]------------[]--------------[
A]------------[]--------------[
E]------------[]--------------[

Guitar 2 - Milo plays throughout the whole song                  
e]-------------[
B]-------------[
G]--7-7-7-7----[
D]-5-5-5-5-----[
A]-------------[
E]-------------[


*Chorus*

Guitar 1

Part 1
e]--5-6-5-6-5---5-6-5-6-5---5-6-5-6-5---5-6-5-6-5----[
B]------------8-----------6-----------4-----------3--[
G]---------------------------------------------------[
D]---------------------------------------------------[
A]---------------------------------------------------[
E]---------------------------------------------------[

Part 2
e]--5-6-5-6-5---5-6-5-6-5---5-6-5-6-5---5-6-5-6-5----[
B]------------8-----------------------------------3--[
G]---------------------------------------------------[
D]---------------------------------------------------[
A]---------------------------------------------------[
E]---------------------------------------------------[

*Verse 2*

same as the first but picked
Tap to rate this tab
# A B C D E F G H I J K L M N O P Q R S T U V W X Y Z