Song name
# A B C D E F G H I J K L M N O P Q R S T U V W X Y Z

Gym Class Heroes - Naked Peekaboo tab

this a revive to the last one i set the power cord on d is on
a my bad i didnt have my guitar infront of me
e|--0--3--0--3-----5----7--8--7----5-----3---------|
B|-------------------------------------------------|
G|-------------------------------------------------|
D|-------------------------------------------------|  repeat 
A|-------------------------------------------------|
E|--0--3--0--3-----5----7--8--7----5-----3---------|

e|-------------------------------------------------|
B|-------------------------------------------------|
G|--4----5----7--5--4------------------------------|
D|-------------------------------------------------|  repeat
A|--2----3----5--3--2------------------------------|
E|-------------------------------------------------|

Tap to rate this tab
# A B C D E F G H I J K L M N O P Q R S T U V W X Y Z