Song name
# A B C D E F G H I J K L M N O P Q R S T U V W X Y Z

Gym Class Heroes - Petrified Life And The Twice Told Joke tab

----------------------------------------------------------------------------
   Petrified life and the twice told joke- Gym Class heroes
----------------------------------------------------------------------------
Tabbed by: Tabman0083
Email: tdh0083@homtail.com

Tuning: Standard Tuning

e|-------5-----5-h-7-p-5-----------5---8/10---x-x--7/8\7-----3h5p3---------|
B|----5--------5-----------5-h-6---6-----------------------3-------3-------|
G|-------------------------------------5/7----x-x--4/5\4-------------------|
D|-------------------------------------------------------------------------|
A|-------------------------------------------------------------------------|
E|-------------------------------------------------------------------------|

e|---1--1h3p1---------0--0h1p0-------5h7p5-------12-11-12-11-12-----10\8---|
B|-1-----------1---0------------0-----------0-------------------12---------|
G|-------------------------------------------------------------------------|
D|-------------------------------------------------------------------------|
A|-------------------------------------------------------------------------|
E|-------------------------------------------------------------------------|

e|------------------------------------------------3h5p3--------1--1h3p1----|
B|-10~~~----10h12p10-------10--12/17---15\12---3---------3--1------------1-|
G|--------9-----------9/10-10----------------------------------------------|
D|-----------------------------9/14----12\9--------------------------------|
A|-------------------------------------------------------------------------|
E|-------------------------------------------------------------------------|

e|------------------------5---8\7--5-----5--8/10--x-x--7/8\7------3h5p3----|
B|-0-5/6/8/10---8\6\5---5-----5------5h6------------------------3-------3--|
G|------------------------------------------5/7---x-x--4/5\4---------------|
D|-------------------------------------------------------------------------|
A|-------------------------------------------------------------------------|
E|-------------------------------------------------------------------------|

e|----1---1h3p1-----0------------------------------------------------------|
B|-1-------------1--1------------------------------------------------------|
G|------------------2------------------------------------------------------|
D|------------------3------------------------------------------------------|
A|-------------------------------------------------------------------------|
E|-------------------------------------------------------------------------|
Tap to rate this tab
# A B C D E F G H I J K L M N O P Q R S T U V W X Y Z