Song name
# A B C D E F G H I J K L M N O P Q R S T U V W X Y Z

Gym Class Heroes - Queen And I tab

-------------------------------------------------------------------------------
			     The Queen and I - Gym Class Heroes
-------------------------------------------------------------------------------
Tabbed by: justgyro
Email: justgyro@hotmail.com

Tuning: Standard

This is a really cool song by Gym Class Heroes from the album As Cruel As School
I recently heard a live acoustic version of it and thought it would be cool to learn but since
tabs I've found for it seem to be off a little, I tried to figure it out myself. This is 
first tab on here so I dunno if it'll be much better but it sounds at least 95%
to me. Feel free to fill me in with any comments or corrections u think need to be made. Enjoy!!

Intro/Main Riff: (played for the rap verses-listen to the song for the rythm)
|--5-5---5-5-5--------|
|--5-5---5-5-5--------|
|--5-5---5-5-5--------|
|--7-7---7-7-7--------|
|--7-7---7-7-7--------|
|--5-5---5-5-5--------|

Chorus:
|----------------------------12-12-10-10-8-8-----------------------------------------|
|----------------12-12-10-10-----------------12-12-10-10-9-9-------------------------|
|------10-10-9-9----------------------------------------------10-10-9-9--------------|
|10-10------------------------------------------------------------------12-12-10-10--|
|------------------------------------------------------------------------------------|
|------------------------------------------------------------------------------------|

---------------------------------------------12-12-----------------------------------|
----------------------------------12-12-9-9--------12-10-9---------------------------|
---------------------12-12-10-10---------------------------10-9----------------------|
9-9-------12-12-9-9---------------------------------------------12-10-9--------------|
----11-11----------------------------------------------------------------12----------|
-------------------------------------------------------------------------------------|

Bridge:
|-7-7-7--5--0---------0---5-5-5--5--5---------- |-8-8-8--6----6-----6-----6-6-6--5----5--|(cd version:just play first part of bridge 4x)
|-7-7-7--5------5---------7-7-7--5------5------------------------------------------------|
|-9-9-9--7--------7-------7-7-7--7--------7----------------------------------------------|(acoustic version: play first part twice after
|-------------------------------- 7------------------------------------------------------| playing the full bridge once)
|-------------------------------- 5------------------------------------------------------|

-7-7-7--5--0---------0--5-5-5--5-------------------------------------------------|
-8-8-8--6----6-----6----6-6-6--5-------------- -7-7-7--5------5--------7-7-7--5--|
-9-9-9--7--------7------7-7-7--7-------------------------------------------------|
------------------------------- 7------------------------------------------------|
------------------------------- 5------------------------------------------------|

Solo:
|--------10(x16)-----------------------------------------|
|13(x16)---------12(x16)--12-10-9------------------------|
|---------------------------------10-9-------------------|
|--------------------------------------12-10-9-----------|
|----------------------------------------------12--------|
|--------------------------------------------------------|

Outro
|-5-5-5-|
|-5-5-5-|
|-5-5-5-|
|-7-7-7-|
|-7-7-7-|
|-5-5-5-|

Order:
Main Riff (x26)
Chorus (x2)
Main Riff (x26)
Chorus (x2)
Bridge (x2)
Solo
Chorus (x3)
Outro (played immediately after the last chorus of acoustic version)
Tap to rate this tab
 
# A B C D E F G H I J K L M N O P Q R S T U V W X Y Z