Song name
# A B C D E F G H I J K L M N O P Q R S T U V W X Y Z

Gym Class Heroes - On My Own Time Write On Acoustic tab

I know this song is off but it can help people figure it out.

Intro

Repeat
---7-----10---|
---7-----12---|
---7-----12---|
---8-----10---|
---9-----10---|
---7-----10---|

Verse

---7-----10-----10----8-----5---|
---7-----12-----9-----9-----5---|
---7-----12-----8-----8-----5---|
---8-----10-----------------4---|
---9-----10-----------------x---|
---7-----10-----------------5---|

---10----9-----8---|
---9-----7-----6---|
---8-----6-----5---|
-------------------|
-------------------|
-------------------|


Chorus

---7--- ---7---6---5-----7---|
---7--- ---7---6---5-----7---|
---7--- ---7---6---5-----7---|
---8--- ---7---6---5-----7---|
---9--- ---9---8---7-----9---|
---7--- ---7---6---5-----7---|


---12--- ---7---6---5-----7---|
---12--- ---7---6---5-----7---|
---12--- ---7---6---5-----7---|
---10--- ---7---6---5-----7---|
---10--- ---9---8---7-----9---|
---10--- ---7---6---5-----7---|

---10---|
---12---|
---11---|
---12---|
---10---|
---10---|


If someone could actually use this to make a better one, that would be great.
Tap to rate this tab
# A B C D E F G H I J K L M N O P Q R S T U V W X Y Z