Song name
# A B C D E F G H I J K L M N O P Q R S T U V W X Y Z

Gym Class Heroes - Simple Living tab

----------------------------------------------------------------------------
			  Simple Living - Gym Class Heroes
----------------------------------------------------------------------------
Tabbed by: Joe Wyatt
Email: heyjoey_24@hotmail.co.uk

Tuning: Standard

Intro:

e|---3-1--0h1--3/5\3-1-0------------0-------| (x8)
B|---3-3--3---------------3-1-0-1-3---------|
G|---2-2--2---------------2-2---------------|
D|------------------------0-2---------------|
A|------------------------------------------|
E|------------------------------------------|
                                           
On the Second Repetition ONLY play this:

e|---3-1--0h1--3/5\3-1-0------------1-------|
B|---3-3--3---------------3-1-0-1-3---------|
G|---2-2--2---------------2-2---------------|
D|------------------------0-2---------------|
A|------------------------------------------|
E|------------------------------------------|


e|---3-1~--------3-1~-----------------------|
B|---3-3~--3-1~--3-3~--3-1~-----------------|
G|---2-2~--2-2~--2-2~--2-2~-----------------|
D|---------0-2~--------0-2~-----------------|
A|------------------------------------------|
E|------------------------------------------|


e|---3-1--0h1--3/5\3-1-0------------0-------| (x2)
B|---3-3--3---------------3-1-0-1-3---------|
G|---2-2--2---------------2-2---------------|
D|------------------------0-2---------------|
A|------------------------------------------|
E|------------------------------------------|


e|---3-1--1--1---------0--0----3-1--1--1---------0---------| (x2)
B|---3-3---3--3---3-1---1--1---3-3---3--3---3-1----1---1---|
G|---2-2----2--2--2-2----2--2--2-2----2--2--2-2------2-----|
D|----------------0-2-----------------------0-2------------|
A|---------------------------------------------------------|
E|---------------------------------------------------------|


e|---3-1--0h1--3/5\3-1-0------------1-------| (x6)
B|---3-3--3---------------3-1-0-1-3---------|
G|---2-2--2---------------2-2---------------|
D|------------------------0-2---------------|
A|------------------------------------------|
E|------------------------------------------|


e|---0h1--3/5\3--1-0------|
B|------------------------|
G|------------------------|
D|------------------------|
A|------------------------|
E|------------------------|


e|---3~-1~---------3-1~-----------------|
B|---3~-3~--3~-1~--3-3~-3-1~------------|
G|---2~-2~--2~-2~--1-2~-2-2~------------|
D|----------0~-2~-------0-2~------------|
A|--------------------------------------|
E|--------------------------------------|


e|---3-1--1--1---------0--0----3-1--1--1---------0---------| (x2)
B|---3-3---3--3---3-1---1--1---3-3---3--3---3-1----1---1---|
G|---2-2----2--2--2-2----2--2--2-2----2--2--2-2------2-----|
D|----------------0-2-----------------------0-2------------|
A|---------------------------------------------------------|
E|---------------------------------------------------------|


e|---3-1--0h1--3/5\3-1-0------------1-------| (x2)
B|---3-3--3---------------3-1-0-1-3---------|
G|---2-2--2---------------2-2---------------|
D|------------------------0-2---------------|
A|------------------------------------------|
E|------------------------------------------|


| /  slide up
| \  slide down
| h  hammer-on
| ~  vibrato

============================================================================
Tap to rate this tab
# A B C D E F G H I J K L M N O P Q R S T U V W X Y Z