Song name
# A B C D E F G H I J K L M N O P Q R S T U V W X Y Z

Gypsy Juvenile - Alien Assualt tab

http://profile.myspace.com/index.cfm?fuseaction=user.viewprofile&friendid=140505796

that is the bands myspace and you should add them

This is my first tab ever and this is how i think the song is played. im pretty sure its 
correct. if you got any questions email me at wolfgang.bronski.12@hotmail.com

this is my first tab i've posted

intro

|------------------|
|------------------|
|------------------|
|------ 5-55-------|.
|-5-55 3-33-55-----|. place this part twice the firs time palm muted and the 2nd time normally
|-3-33------   33--|.

intro with all instrument

|-----------------------------|
|-----------------------------|
|-----------------------------|
|-555555555555-555555-777777--|
|-555555555555-333333-555555--|times 2
|-333333333333----------------|

verses (play this twice during each verse)

|-----------------------------|
|-----------------------------|
|--------------55-5-57-77757--|
|----5-5555535-55-5-57-77757--|       Palm muted
|-55-5-5555535-33-3-35-55555--|
|-33-3-3333333----------------|


chorus

|----------------------|
|----------------------|
|------5555-7777-5555--|
|-5555-5555-7777-5555--|    play this part twice
|-5555-3333-5555-3333--|
|-3333-----------------|

bridge

|------------------------------|
|------------------------------|
|------------------------------|
|------------------------------|
|----5-33-33-55----5-33-33-2-0-| play this bit palm muted twice
|-33------------33-------------|
Tap to rate this tab
# A B C D E F G H I J K L M N O P Q R S T U V W X Y Z