Song name
# A B C D E F G H I J K L M N O P Q R S T U V W X Y Z

Gyptian - Hold Yuh tab

Hey guys, so these are the tabs to my arrangement of Gyptian - Hold Yuh
(sorry for the delay chiz!)

watch my cover of it here to get an idea of the rhythm and timing etc
http://www.youtube.com/watch?v=62lB_vBBPsI

By the way, this is my first tab so I may have made mistakes, so feel free to let
me know if I have!

Based around the chords D Em C G

h = Hammer On
p = Pull Off
/ = Slide

Capo 1

e|---------------------------------------------------------------|
B|-----3-3-3-1p0-0----3---0--1-1-1-0--------------------0--------|
G|----2----------0------0----0-------0-0----2---0--2--2---2-0----|
D|---0-----------2--2--------2------------0---0----0-------------|
A|---------------2-----------3-----------------------------------|
E|-------------------------------------3-------------------------|


e|---------------------------------------------------------------|
B|---------------------------------0----3-3-3--1p0-0----------1--|
G|---0--0-----0-----0--2p0--0----0-----2-----------0----2---0-0--|
D|-2-------2-----2----------0--0------0------------2--2---2---2--|
A|-2----------3------------------------------------2----------3--|
E|--------------------------3------------------------------------|

e|----------------------------------------------------------------|
B|-1-1-0-------------------0-------------------------------0------|
G|-------0-0---2---0--2--2---2-0---0--0---0---0--2p0-0--0----2--0-|
D|-----------0---0----0----------2------2---2--------0-0-----0----|
A|-------------------------------2--------3-----------------------|
E|---------3-----------------------------------------3------------|


e|----------------------------------------------------------------|
B|---0-0-0-------------0-0-0-0------------------------------------|
G|--0------0h2p0-0---0---0-----0h2p0--2-2-------0---2-----0---2---|
D|-2-------------2-2-----0------------0---0-0p2-2-2---0p2-2-2---2-|
A|2--------------3------------------------------2---------3-------|
E|-----------------------3----------------------------------------|


e|-----------------------------------------------------------------|
B|---0-0-0----------3-------0-0-0-------------0-0-0-0--------------|
G|-0-0-----0p2-2--2---2----0------0h2p0-0---0---0-----0h2p0--2-2---|
D|---0---------0----------2-------------2-2-----0------------0---0-|
A|-----------------------2--------------3--------------------------|
E|---3------------------------------------------3------------------|


e|-----------------------|
B|-----------------------|
G|-----0---2-----0---2---|
D|-0p2-2-2---0p2-2-2---2-|
A|-----2---------3-------|
E|-----------------------|


e|-----------------------------------------------------------------|
B|-0-0-0-------3-3-3-1p0-0----3---0--1-1-1-0-----------------0-----|
G -0-----0p2--2----------0------0----0------0-0---2---0-2--2---2p0-|
D|-0---------0-----------2--2--------2----------0---0---0----------|
A|-----------------------2-----------3-----------------------------|
E|-3------------------------------------------3--------------------|


e|---------------------------------------------------------------|
B|---------------------------------0----3-3-3--1p0-0----------1--|
G|---0--0-----0-----0--2p0--0----0-----2-----------0----2---0-0--|
D|-2-------2-----2----------0--0------0------------2--2---2---2--|
A|-2----------3------------------------------------2----------3--|
E|--------------------------3------------------------------------|


e|----------------------------------------------------------------|
B|-1-1-0--------------------0-------------------------------------|
G|-------0-0----2---0--2--2---2-0----0--0----0----0--2p0--0---0---|
D|------------0---0----0-----------2-------2---2----------0--0--0-|
A|---------------------------------2---------3--------------------|
E|---------3----------------------------------------------3-------|


e|-------------------------0-0------------------0-0---------------|
B|-3/5-3---0----3-3-3-3---1-3-3-0----3-3-3-3---3-3-3-0-0--0--0--1-|
G|-------------0---------0----------0---------2---------0--0--0---|
D|------------2--------------------0---------0-----------2--2-----|
A|-----------2----------3------------------------------2--------3-|
E|--------------------------------3-------------------------------|


e|-------------------------------------------------0-------------|
B|-0h1p0-1p0------------0---------0----------3-3-3------3----0---|
G|-----------0--0---0-----2--0--2---2--0----0----------0---------|
D|----------------0---0---0----------------2----------2----------|
A|----------------------------------------2----------3-----------|
E|--------------3------------------------------------------------|


e|-----------0-------------3--2--0------0------------3-3-3-2h3p2-0-|
B|-----3-3-3-----3----0---0--------3---1--3--1--0---3--------------|
G|----0---------2--------0------------0------------0---------------|
D|---0---------0---------------------------------------------------|
A|----------------------2------------3-----------------------------|
E|--3---------------------------------------------3----------------|


e|----------------------------------------------------------------|
B|---3-3-3-1h3p1-0--0----3---0--1-1-1-0--------------------0------|
G|--2---------------0------0----0-------0-0----2---0--2--2---2-0--|
D|-0----------------2--2--------2------------0---0----0-----------|
A|------------------2-----------3---------------------------------|
E|----------------------------------------3-----------------------|


e|----------------------------------------------------------------|
B|---------------------------------0----3-3-3--1p0-0----------1---|
G|---0--0-----0-----0--2p0--0----0-----2-----------0----2---0-0---|
D|-2-------2-----2----------0--0------0------------2--2---2---2---|
A|-2----------3------------------------------------2----------3---|
E|--------------------------3-------------------------------------|


e|----------------------------------------------------------------|
B|-1-1-0--------------------0-------------------------------------|
G|-------0-0----2---0--2--2---2-0----0--0----0----0--2p0--0---0---|
D|------------0---0----0-----------2-------2---2----------0--0----|
A|---------------------------------2---------3--------------------|
E|---------3----------------------------------------------3-------|


e|--------|
B|-0-3----|
G|---2----|
D|---0----|
A|--------|
E|--------|
Tap to rate this tab
# A B C D E F G H I J K L M N O P Q R S T U V W X Y Z