Song name
# A B C D E F G H I J K L M N O P Q R S T U V W X Y Z

Gyroscope - The River Between tab

-------------------------------------------------------------------------------
                             River Between - Gyroscope
-------------------------------------------------------------------------------
Tabbed by: JAZZA
Email: jazzalaw@hotmail.com

Here's the intro for this song. Its the part from the begining of the song, 
to right before the lyrics and the first bar chord. 
Enjoy.

Tuning: Normal (EADGBE)

e|---------------------------0-----0-----0-----0-----------------------0-----|
B|---2-----2-----2-----2-----------------------------0-----0-----0-----------|
G|------2-----2-----2-----2-----2-----2-----2-----2-----2-----2-----2-----2--|
D|---------------------------------------------------------------------------|
A|---------------------------------------------------------------------------|
E|---------------------------------------------------------------------------|

e|---------------------------------------------------------------------------|
B|---2-----------------------------------------------------------------------|
G|------2--2--2--2---2--2--2--2----------------------------------------------|
D|---------------------------------------------------------------------------|
A|---------------------------------------------------------------------------|
E|---------------------------------------------------------------------------|


===============================================================
Tap to rate this tab
# A B C D E F G H I J K L M N O P Q R S T U V W X Y Z