Song name
# A B C D E F G H I J K L M N O P Q R S T U V W X Y Z

Gyroscope - You Try Waiting This Long tab

Help us improve GuitareTab! Take a short survey!
I have only tabbed Zoran's parts


Intro

e|-5-------------------5-------------------5-----------------5-----------------|
b|---5-------------------5-------------------5-----------------5---------------|
g|-----7---------7---------7---------7---------7---------7--------7---------7--|
d|-------7---7/9-7-----------7---7/9-7-----------7---7/9-7----------7---7/9----|x2
a|---------5-------------------5-------------------5-----------------5---------|
e|-----------------------------------------------------------------------------|

e|-5--------5--------5--------5----5----5-| 
b|-5--------5--------5--------5----5----5-|
g|-7--------7--------7--------7----7----7-|
d|-7--------7--------7--------7----7----7-|
a|----------------------------------------|
e|----------------------------------------| 

  "oohs" start here
Related for You Try Waiting This Long tab