Song name
# A B C D E F G H I J K L M N O P Q R S T U V W X Y Z

Gyroscope - She Will Come tab

She Will Come - Gyroscope

Tabbed by: Matt Heal
email: mattheal(at)gmail.com

Verse
e|-4-4-4-4--5-5--2-2--|
b|-5-5-5-5--5-5--2-2--|
g|-6-6-6-6--6-6--3-3--|
d|-6-6-6-6--7-7--4-4--|
a|-4-4-4-4--7-7--4-4--|
E|----------5-5--2-2--|

Chorus
e|-0-0-0-0-0-0-0-0-------------------4-4-4-4-4-4-4-4-|
b|-0-0-0-0-0-0-0-0--4-4-4-4-4-4-4-4--5-5-5-5-5-5-5-5-|
g|-1-1-1-1-1-1-1-1--4-4-4-4-4-4-4-4--6-6-6-6-6-6-6-6-|
d|-2-2-2-2-2-2-2-2--4-4-4-4-4-4-4-4--6-6-6-6-6-6-6-6-|
a|-2-2-2-2-2-2-2-2--2-2-2-2-2-2-2-2--4-4-4-4-4-4-4-4-|
E|-0-0-0-0-0-0-0-0-----------------------------------|

e|-0-0-0-0-0-0-0-0-------------------4-4-4-4-----------0-0--|
b|-0-0-0-0-0-0-0-0--4-4-4-4-4-4-4-4--5-5-5-5--4-4-4-4--0-0--|
g|-1-1-1-1-1-1-1-1--4-4-4-4-4-4-4-4--6-6-6-6--4-4-4-4--1-1--|
d|-2-2-2-2-2-2-2-2--4-4-4-4-4-4-4-4--6-6-6-6--4-4-4-4--2-2--|
a|-2-2-2-2-2-2-2-2--2-2-2-2-2-2-2-2--4-4-4-4--2-2-2-2--2-2--|
E|-0-0-0-0-0-0-0-0-------------------------------------0-0--|

Verse
e|-4-4-4-4--5-5--2-2--|
b|-5-5-5-5--5-5--2-2--|
g|-6-6-6-6--6-6--3-3--|
d|-6-6-6-6--7-7--4-4--|
a|-4-4-4-4--7-7--4-4--|
E|----------5-5--2-2--|

Chorus
e|-0-0-0-0-0-0-0-0-------------------4-4-4-4-4-4-4-4-|
b|-0-0-0-0-0-0-0-0--4-4-4-4-4-4-4-4--5-5-5-5-5-5-5-5-|
g|-1-1-1-1-1-1-1-1--4-4-4-4-4-4-4-4--6-6-6-6-6-6-6-6-|
d|-2-2-2-2-2-2-2-2--4-4-4-4-4-4-4-4--6-6-6-6-6-6-6-6-|
a|-2-2-2-2-2-2-2-2--2-2-2-2-2-2-2-2--4-4-4-4-4-4-4-4-|
E|-0-0-0-0-0-0-0-0-----------------------------------|

e|-0-0-0-0-0-0-0-0-------------------4-4-4-4-----------0-0--|
b|-0-0-0-0-0-0-0-0--4-4-4-4-4-4-4-4--5-5-5-5--4-4-4-4--0-0--|
g|-1-1-1-1-1-1-1-1--4-4-4-4-4-4-4-4--6-6-6-6--4-4-4-4--1-1--|
d|-2-2-2-2-2-2-2-2--4-4-4-4-4-4-4-4--6-6-6-6--4-4-4-4--2-2--|
a|-2-2-2-2-2-2-2-2--2-2-2-2-2-2-2-2--4-4-4-4--2-2-2-2--2-2--|
E|-0-0-0-0-0-0-0-0-------------------------------------0-0--|


Bridge (let ring)
e|-4-----0--|
b|-5--4--0--|
g|-6--4--1--|
d|-6--4--2--|
a|-4--2--2--|
E|-------0--|

Chorus
e|-0-0-0-0-0-0-0-0-------------------4-4-4-4-4-4-4-4-|
b|-0-0-0-0-0-0-0-0--4-4-4-4-4-4-4-4--5-5-5-5-5-5-5-5-|
g|-1-1-1-1-1-1-1-1--4-4-4-4-4-4-4-4--6-6-6-6-6-6-6-6-|
d|-2-2-2-2-2-2-2-2--4-4-4-4-4-4-4-4--6-6-6-6-6-6-6-6-|
a|-2-2-2-2-2-2-2-2--2-2-2-2-2-2-2-2--4-4-4-4-4-4-4-4-|
E|-0-0-0-0-0-0-0-0-----------------------------------|

e|-0-0-0-0-0-0-0-0-------------------4-4-4-4-----------0-0--|
b|-0-0-0-0-0-0-0-0--4-4-4-4-4-4-4-4--5-5-5-5--4-4-4-4--0-0--|
g|-1-1-1-1-1-1-1-1--4-4-4-4-4-4-4-4--6-6-6-6--4-4-4-4--1-1--|
d|-2-2-2-2-2-2-2-2--4-4-4-4-4-4-4-4--6-6-6-6--4-4-4-4--2-2--|
a|-2-2-2-2-2-2-2-2--2-2-2-2-2-2-2-2--4-4-4-4--2-2-2-2--2-2--|
E|-0-0-0-0-0-0-0-0-------------------------------------0-0--|

Tap to rate this tab
 
# A B C D E F G H I J K L M N O P Q R S T U V W X Y Z