Song name
# A B C D E F G H I J K L M N O P Q R S T U V W X Y Z

Gyroscope - These Days tab

All tabbing done By myself, Jamie.
This is my first tab, But im fairly confident this is right.

Gyroscope - These days

Standard Tuning


Intro


E----7-7-5-2-5-5-2--------------|
B------------------7-5-3--------|
B-------------------------------|
G-------------------------------|
D-------------------------------|
A-------------------------------|
E-------------------------------|

E------------------------------|
B---3-5-5/7-5-5/7-7-7 7-5-3----|
G-4-------------------------4--|
D------------------------------|   x 2
A------------------------------|
E------------------------------|


Verse 1


E-----------------------------0---------|
B-------------------0---------0---------|
G----4-4---4-2-2--2-2-2---1-1-1---------|
D----4-4---4-2-2--2-2-2---2-2-2---------|
A----2-2---2-0-0--0---0---2-2-2---------|
E-------------------------0-0-0---------|


Pre-Chorus

Lead Guitar

E---------------------------|
B--- 7~ ---- 2~ ------------|
G---------------- 2~ --- 4~-|      x2
D---------------------------|
A---------------------------|
E---------------------------|

E------------------------------------------------------|
B------------------------------------------------------|
G----4-4-4--6-6-6-7-7-7-9-9-9-7-7-6-6------------------|
D----x-x-x--x-x-x-x-x-x-x-x-x-x-x-x-x------------------|
A----2-2-2--4-4-4-5-5-5-7-7-7-5-5-4-4------------------|
E------------------------------------------------------|



Chorus


Rhythm Powerchord Progression :

B - D - G - E 


Lead Guitar Octaves:

E------------------------------------------------------------------|
B------------------------------------------------------------------|
G--4-------7-7-7-7-7-7--11-11-9-9-9-9-9-9-9-9--6-6-6-6-7-7-7-7-----|
D--x-(x8)--x-x-x-x-x-x--x--x--x-x-x-x-x-x-x-x--x-x-x-x-x-x-x-x-----|
A--2-------5-5-5-5-5-5--9--9--7-7-7-7-7-7-7-7--4-4-4-4-5-5-5-5-----|
E------------------------------------------------------------------|


Post Chorus


Lead Guitar : Intro
Rhythm Guitar : Chorus Chord Progression with vocals. 

End with.

G (x 8)  - E (x 8)


Verse 2 

(same as verse 1)

Pre - Chorus

CHorus 

(same as first chorus)

Post Chorus

(same as first post chorus)

Post Chorus Ending/ Bridge Build up.

( Fairly Certian F# Note is just tremolo picked and a pitch shifter is used, 
but heres how to imitate without pitch shift.)


E-2tr.--3tr.-5tr.-7tr.-9tr. 10tr.-12tr.-14tr.-|
B---------------------------------------------|
G---------------------------------------------|(I'll let you work out the timing, its not too hard,
D---------------------------------------------|  Could even improv the timing or solo during
A---------------------------------------------|  this bit. )
A---------------------------------------------| 
E---------------------------------------------| 

Bridge

Lead Guitar:


E---7---------10------------        ----7---------12-------14--------|
B--b10-(x4)--b13-(x4)-------        ---b10-(x6)--b15-(x2)-b17-(x8)---|
G---------------------------    X2  ---------------------------------|
D---------------------------        ---------------------------------|
A---------------------------        ---------------------------------|
E---------------------------        ---------------------------------|

Rhythm Guitar:

Power Chords:

G (x 8) - E (x 8 ) - G (x8) - E (x8) - G (x16) - A (x16)



Post Chorus. (x 2) ( Yes the post chorus progression comes before chorus, *without 
the G, E ending!*)


Chorus ( x 2)


Pre Chorus (x 3) ( Yes Pre Chorus comes after Chorus)


Rhythm Guitar:
Power Chords -

G (x8) - E (x8) ~ ( x2)

A (x 16) F# (x16)

End on B

 
Ending, Lead Guitar.

E--------------------------------------------------|
B--------------------------------------------------|
G--4-4-4-6-6-6-7-7-7-9-9-9-7-7-7-6-6-6--4----------|
D--x-x-x-x-x-x-x-x-x-x-x-x-x-x-x-x-x-x--x----------|
A--2-2-2-4-4-4-5-5-5-7-7-7-5-5-5-4-4-4- 2~ --------|
E--------------------------------------------------|
Tap to rate this tab
# A B C D E F G H I J K L M N O P Q R S T U V W X Y Z