Song name
# A B C D E F G H I J K L M N O P Q R S T U V W X Y Z

Gyroscope - Some Of The Places I Know tab

Some Of The Places I Know - Gyroscope
Tabbed by: Matt Heal
Email: mattheal @ Gmail.com

Intro Lead riff - Zok (doubled on keys)
e|------------------------------------------------------------------|
b|---6-8-10p8-6-------6-8-10p8-6-------6-8-7-7-7~------66-----------|
g|-77-----------7--77------------7--77--------------77----5-5~------|
d|------------------------------------------------------------------|
a|------------------------------------------------------------------|
E|------------------------------------------------------------------|

Intro Rhythm 

e|------------------------------------------------------|
b|------------------------------------------------------|
g|-----7-----7------5-----5-----------------------------|
d|-7-7-7-7-7-7--5-5-5-5-5-5------5-----5------8-----8---|
a|-5-5-5-5-5-5--3-3-3-3-3-3--5-5-5-5-5-5--8-8-8-8-8-8---|
E|---------------------------3-3-3-3-3-3--6-6-6-6-6-6---|

Verse:

Rhythm same as intro, Piano plays single of the same chords

e|------------------------------------------------------|
b|------------------------------------------------------|
g|-----7-----7------5-----5-----------------------------|
d|-7-7-7-7-7-7--5-5-5-5-5-5------5-----5------8-----8---|
a|-5-5-5-5-5-5--3-3-3-3-3-3--5-5-5-5-5-5--8-8-8-8-8-8---|
E|---------------------------3-3-3-3-3-3--6-6-6-6-6-6---|

second time through 2nd guitar comes in with

e|---------|
b|---------|
g|-7-7-7-7-|
d|-x-x-x-x-| as needed
a|-5-5-5-5-|
E|---------|

3rd? time through has this over the top as a third guitar
e|------------------------------------------------------------------|
b|---6-8-10p8-6-------6-8-10p8-6-------6-8-7-7-7~------66-----------|
g|-77-----------7--77------------7--77--------------77----5-5~------|
d|------------------------------------------------------------------|
a|------------------------------------------------------------------|
E|------------------------------------------------------------------|

Pre Chorus:

both guitars
e|------------------------------------------|
b|------------------------------------------|
g|-7-7---7-7------------5-5---5-5-----------|
d|-7-7---7-7--3-3-3-3---5-5---5-5--5-5-5-5--|
a|-5-5---5-5--3-3-3-3---3-3---3-3--5-5-5-5--|
E|------------1-1-1-1--------------3-3-3-3--|

Chorus
e|-----------------------------------------------------------------------------------|
b|-3-3-3-3-3-3---5-5-5-5-5-5--------3-3-3-3-3-3-3---5-5-5-5-5-5-5--------------------|
g|-3-3-3-3-3-3---5-5-5-5-5-5--4-4---3-3-3-3-3-3-3---5-5-5-5-5-5-5-----4-4-4-4-4-4----|
d|-3-3-3-3-3-3---5-5-5-5-5-5--5-5---3-3-3-3-3-3-3---5-5-5-5-5-5-5-----5-5-5-5-5-5----|
a|-1-1-1-1-1-1---3-3-3-3-3-3--5-5---1-1-1-1-1-1-1---3-3-3-3-3-3-3-----5-5-5-5-5-5----|
E|----------------------------3-3-------------------------------------3-3-3-3-3-3----|

pre verse (intro again)

Lead riff - Zok (doubled on keys)
e|------------------------------------------------------------------|
b|---6-8-10p8-6-------6-8-10p8-6-------6-8-7-7-7~------66-----------|
g|-77-----------7--77------------7--77--------------77----5-5~------|
d|------------------------------------------------------------------|
a|------------------------------------------------------------------|
E|------------------------------------------------------------------|

Rhythm - Dan

e|------------------------------------------------------|
b|------------------------------------------------------|
g|-----7-----7------5-----5-----------------------------|
d|-7-7-7-7-7-7--5-5-5-5-5-5------5-----5------8-----8---|
a|-5-5-5-5-5-5--3-3-3-3-3-3--5-5-5-5-5-5--8-8-8-8-8-8---|
E|---------------------------3-3-3-3-3-3--6-6-6-6-6-6---|

Verse:

Rhythm same as intro, Piano plays single of the same chords

e|------------------------------------------------------|
b|------------------------------------------------------|
g|-----7-----7------5-----5-----------------------------| 
d|-7-7-7-7-7-7--5-5-5-5-5-5------5-----5------8-----8---| x3
a|-5-5-5-5-5-5--3-3-3-3-3-3--5-5-5-5-5-5--8-8-8-8-8-8---|
E|---------------------------3-3-3-3-3-3--6-6-6-6-6-6---|

second time through 2nd guitar comes in with

e|---------|
b|---------|
g|-7-7-7-7-|
d|-x-x-x-x-| as needed
a|-5-5-5-5-|
E|---------|

Pre Chorus

both guitars
e|------------------------------------------|
b|------------------------------------------|
g|-7-7---7-7------------5-5---5-5-----------|
d|-7-7---7-7--3-3-3-3---5-5---5-5--5-5-5-5--|
a|-5-5---5-5--3-3-3-3---3-3---3-3--5-5-5-5--|
E|------------1-1-1-1--------------3-3-3-3--|

Chorus
e|-----------------------------------------------------------------------------------|
b|-3-3-3-3-3-3---5-5-5-5-5-5--------3-3-3-3-3-3-3---5-5-5-5-5-5-5--------------------|
g|-3-3-3-3-3-3---5-5-5-5-5-5--4-4---3-3-3-3-3-3-3---5-5-5-5-5-5-5-----4-4-4-4-4-4----|
d|-3-3-3-3-3-3---5-5-5-5-5-5--5-5---3-3-3-3-3-3-3---5-5-5-5-5-5-5-----5-5-5-5-5-5----|
a|-1-1-1-1-1-1---3-3-3-3-3-3--5-5---1-1-1-1-1-1-1---3-3-3-3-3-3-3-----5-5-5-5-5-5----|
E|----------------------------3-3-------------------------------------3-3-3-3-3-3----|


Solo

part one ?

other part Neck pickup

e|-------------------------------10-13-10----10-13-13b15-10-----------|
b|-------------------------10-13----------13----------------13-10-8-6-|
g|-------------------10-12--------------------------------------------|
d|-------------10-12--------------------------------------------------|
a|-------10-12--------------------------------------------------------|
E|-10-13--------------------------------------------------------------|


Chorus
e|-----------------------------------------------------------------------------------|
b|-3-3-3-3-3-3---5-5-5-5-5-5--------3-3-3-3-3-3-3---5-5-5-5-5-5-5--------------------|
g|-3-3-3-3-3-3---5-5-5-5-5-5--4-4---3-3-3-3-3-3-3---5-5-5-5-5-5-5-----4-4-4-4-4-4----|
d|-3-3-3-3-3-3---5-5-5-5-5-5--5-5---3-3-3-3-3-3-3---5-5-5-5-5-5-5-----5-5-5-5-5-5----|
a|-1-1-1-1-1-1---3-3-3-3-3-3--5-5---1-1-1-1-1-1-1---3-3-3-3-3-3-3-----5-5-5-5-5-5----|
E|----------------------------3-3-------------------------------------3-3-3-3-3-3----|

Outro

Zok

e|------------------------------------------------------------------|
b|---6-8-10p8-6-------6-8-10p8-6-------6-8-7-7-7~------66-----------|
g|-77-----------7--77------------7--77--------------77----5-5~------|
d|------------------------------------------------------------------|
a|------------------------------------------------------------------|
E|------------------------------------------------------------------|


Dan
e|-----------------------------------------------------------------------------------|
b|-3-3-3-3-3-3---5-5-5-5-5-5--------3-3-3-3-3-3-3---5-5-5-5-5-5-5--------------------|
g|-3-3-3-3-3-3---5-5-5-5-5-5--4-4---3-3-3-3-3-3-3---5-5-5-5-5-5-5-----4-4-4-4-4-4----|
d|-3-3-3-3-3-3---5-5-5-5-5-5--5-5---3-3-3-3-3-3-3---5-5-5-5-5-5-5-----5-5-5-5-5-5----|
a|-1-1-1-1-1-1---3-3-3-3-3-3--5-5---1-1-1-1-1-1-1---3-3-3-3-3-3-3-----5-5-5-5-5-5----|
E|----------------------------3-3-------------------------------------3-3-3-3-3-3----|

then just zok

e|------------------------------------------------------------------|
b|---6-8-10p8-6-------6-8-10p8-6-------6-8-7-7-7~------66-----------|
g|-77-----------7--77------------7--77--------------77----5-5~------|
d|------------------------------------------------------------------|
a|------------------------------------------------------------------|
E|------------------------------------------------------------------|

e|--------------|
b|----66--------|
g|-77-----5-5~--|   x 3 Fading out
d|--------------|
a|--------------|
E|--------------|

finish
Tap to rate this tab
# A B C D E F G H I J K L M N O P Q R S T U V W X Y Z