Song name
# A B C D E F G H I J K L M N O P Q R S T U V W X Y Z

Gyroscope - 22 Of 3 tab

A great song i felt HAD to be tabbed, sounds great acoustic as well. enjoy

My First Effort to finally give back to so many that have given to me. Its a good effort 
feel. there are a few little 2nd guitar bits that need to be added but cant make it all 
let me know about the effort or any comments. hope to be posting a few more in the future!
Cheers
trennaman@hotmail.com

Intro and Verse One.
 Guitar 1
e|---------------------------------------------------|
B|---------------------------------------------------|
G|---0--0-0-0-0-0-0-0--------------------------------|
D|--9-10-7-9-0-4-5-0----x8---------------------------|
A|---------------------------------------------------|
E|---------------------------------------------------|

 Guitar 2
e|---------------------------------------------------|
B|---------------------------------------------------|
G|---4-5---------------------------------------------|
D|-5-4-5---------------x8----------------------------|
A|-5-2-3---------------------------------------------|
E|-3-------------------------------------------------|
From the brightest side of this star,
I'll forget just who you are.
As you lie like lounge room lizards,
if you speak then I know where you are.


Pre-Chorus
- Both Guitars
e|---------------------------------------------------|
B|---------------------------------------------------|
G|-5-4-----------------------------------------------|
D|-5-4-4-5------------x4-----------------------------|
A|-3-2-5-5-------------------------------------------|
E|-----2-3-------------------------------------------|
Each time you fix it, it just falls apart. (hock it in)
You won't get s**t from a busted heart. (let me see)
Your goddamn money, I'll prove it to you. Let me see, let me through.

Verse Two
Guitar 1
e|-------------------------------------------------|
B|-------------------------------------------------|
G|-------------------------------------------------|
D|-3-----------------------------------------------|
A|-3--let ring-------------------------------------|
E|-5-----------------------------------------------|

Guitar 2
(you can figure out when and timing)
e|-10-----10--------10~-------10-----10------------|
B|-8--x8--7--x8--8~-----------8--X8--7--X8---------|
G|-------------------------------------------------|
D|-------------------------------------------------|
A|-------------------------------------------------|
E|-------------------------------------------------|

It's agreed we'll follow you,
Just as long as this compass is true.
If it's not, then I guess follow me.
Let me see, let me see, let me through.


Pre-Chorus
- Both Guitars
e|---------------------------------------------------|
B|---------------------------------------------------|
G|-5-4-----------------------------------------------|
D|-5-4-4-5------------x4-----------------------------|
A|-3-2-5-5-------------------------------------------|
E|-----2-3-------------------------------------------|
Each time you fix it, it just falls apart. (hock it in)
You won't get s**t for a busted heart. (let me see)
Your dirty money, I'll prove it to you. Let me see, let me through.


Chorus
- Both Guitars
e|---------------------------------------------------|
B|---------------------------------------------------|
G|---5-------5---5-----------------------------------|
D|-2-5-5-4-2-5-3-5-----------------------------------|
A|-2-3-5-5-2-3-3-7-----------------------------------|
E|-0---3-2-0---5-------------------------------------|
Take twenty two of three,
then we'll see how well she takes it, if she makes it.
Don't let her fall asleep,
click of fingers and she takes it, she fakes it.


Post Chorus
-Both Guitars
e|---------------------------------------------------|
B|---------------------------------------------------|
G|--------------4-5----------------------------------|
D|-2----------5-4-5----------x2----------------------|
A|-2----------5-2-3----------------------------------|
E|-0-let ring-3--------------------------------------|
But we broke up oh so long ago.


Verse 3
Guitar 1
e|-------------------------------------------------|
B|-------------------------------------------------|
G|-------------------------------------------------|
D|-3-----------------------------------------------|
A|-3--let ring-------------------------------------|
E|-5-----------------------------------------------|

Guitar 2
(you can figure out when and timing)
e|-10-----10--------10~-------10-----10------------|
B|-8--x8--7--x8--8~-----------8--X8--7--X8---------|
G|-------------------------------------------------|
D|-------------------------------------------------|
A|-------------------------------------------------|
E|-------------------------------------------------|
Cover me, and I'll cover you. I can sense that our company's true.
If it's not, then I guess we can leave. Let me see, let me through.

Post Chorus
-Both Guitars
e|---------------------------------------------------|
B|---------------------------------------------------|
G|--------------4-5----------------------------------|
D|-2----------5-4-5----------x2----------------------|
A|-2----------5-2-3----------------------------------|
E|-0-let ring-3--------------------------------------|
But we broke up oh so long ago.


Interlude/Solo thingy
-Guitar 1
e|---------------------------------------------------|
B|---------------------------------------------------|
G|---0--0-0-0-0-0-0-0--------------------------------|
D|--9-10-7-9-0-4-5-0----x4---------------------------|
A|---------------------------------------------------|
E|---------------------------------------------------|

- Guitar 2
e|---------------------------------------------------|
B|---------------------------------------------------|
G|---4-5---------------------------------------------|
D|-5-4-5---------------x4----------------------------|
A|-5-2-3---------------------------------------------|
E|-3-------------------------------------------------|


e|---------------------------------------------------|
B|---------------------------------------------------|
G|---5-------5---5-----------------------------------|
D|-2-5-5-4-2-5-3-5-----------------------------------|
A|-2-3-5-5-2-3-3-7-----------------------------------|
E|-0---3-2-0---5-------------------------------------|
Take twenty two of three,
then we'll see how well she takes it, if she makes it.
Don't let her fall asleep,
click of fingers and she takes it, she fakes it.

Post Chorus
-Both Guitars
e|---------------------------------------------------|
B|---------------------------------------------------|
G|--------------4-5----------------------------------|
D|-2----------5-4-5----------x2----------------------|
A|-2----------5-2-3----------------------------------|
E|-0-let ring-3--------------------------------------|
But we broke up oh so long ago.


Outro - Play til end.
Guitar 1
e|---------------------------------------------------|
B|---------------------------------------------------|
G|---0--0-0-0-0-0-0-0--------------------------------|
D|--9-10-7-9-0-4-5-0---------------------------------|
A|---------------------------------------------------|
E|---------------------------------------------------|

 Guitar 2
e|---------------------------------------------------|
B|---------------------------------------------------|
G|---4-5---------------------------------------------|
D|-5-4-5---------------------------------------------|
A|-5-2-3---------------------------------------------|
E|-3-------------------------------------------------|
From the brightest side of this star,
I'll forget just who you are.
As you lie like lounge room lizards,
if you speak then I know where you are.
Tap to rate this tab
 
# A B C D E F G H I J K L M N O P Q R S T U V W X Y Z