Song name
# A B C D E F G H I J K L M N O P Q R S T U V W X Y Z

Gyroscope - What Do I Know About Pain tab

What Do I Know About Pain - Gyroscope
Tabbed By - Matt Heal
email - mattheal @ gmail.com

Ok so on the 31st of March the boys put the new album Cohesion up on their myspace, so 
started tabbing some of the songs out.

And PLEASE play the tab along with the song, and THINK before rating. so you dont end up 
the guy that rated one of my other tabs badly for "not tabbing the guitar dude" which 
a bass line.

Chorus
Zok
e|-------------------------------------------------------------------------------------------|
b|-15----15----15----15-15/17\15----15----15----15-17\19----19----19----17----17----17-------|
g|----14----14----14-------------14----14----14----------19----19----19----18----18----18----|
d|-------------------------------------------------------------------------------------------|
a|-------------------------------------------------------------------------------------------|
E|-------------------------------------------------------------------------------------------|

Dan
e|----------------------------------------------------------|
b|----------------------------------------------------------|
g|-----------------------------777777777777-----------------|
d|-999999999999--555555555555--777777777777--777777777777---|
a|-999999999999--555555555555--555555555555--777777777777---|
E|-777777777777--333333333333----------------555555555555---|

Verse

Zok x 2
e|---------------|
b|--------15~~---|
g|----/14--------|
d|---------------|
a|---------------|
E|---------------|

Dan x 2
e|-----3-3---2----0----|
b|-3---3-3---3--x-2----|
g|-4---4-4---2--x-2----|
d|-4-x-5-5---0--x-2----|
a|-2-x-5-5------x-0----|
E|---x-3-3-------------|

verse part 2

Dan & Zok

e|---------------------------------------|
b|---------------------------------------|
g|-4-x-4-4------------7-x--7-7-----------|
d|-4-x-4-4---5-x-5-5--7-x--7-7--7-x-7-7--|
a|-2-x-2-2---5-x-5-5--5-x--5-5--7-x-7-7--|
E|-2-x-2---2-3-x-3-3------------5-x-5-5--|

Dan continues as above

Zok
e|------------------------------|
b|-15p14-----------15p14--------|
g|-------14~------------11~/9---|
d|------------------------------|
a|------------------------------|
E|------------------------------|

Pre Chorus

Dan
e|----------------------------------|
b|----------------------------------|
g|------------------7-7-7-----------|
d|-5-5-5-5-5-5-5-5--7-7-7--7-7-7-7--|
a|-5-5-5-5-5-5-5-5--5-5-5--7-7-7-7--|
E|-3-3-3-3-3-3-3-3---------5-5-5-5--|
pm ********************************

zok
e|--------------5--|
b|-----3-----7--5--|
g|---4---7-7----6--|
d|-5-----5------7--|
a|--------------7--|
E|--------------5--|
then both slowly build up on a G chord

Chorus


Zok x 2
e|-------------------------------------------------------------------------------------------|
b|-15----15----15----15-15/17\15----15----15----15-17\19----19----19----17----17----17-------|
g|----14----14----14-------------14----14----14----------19----19----19----18----18----18----|
d|-------------------------------------------------------------------------------------------|
a|-------------------------------------------------------------------------------------------|
E|-------------------------------------------------------------------------------------------|

Dan x2
e|----------------------------------------------------------|
b|----------------------------------------------------------|
g|-----------------------------777777777777-----------------|
d|-999999999999--555555555555--777777777777--777777777777---|
a|-999999999999--555555555555--555555555555--777777777777---|
E|-777777777777--333333333333----------------555555555555---|

Verse

Zok x 2
e|---------------|
b|--------15~~---|
g|----/14--------|
d|---------------|
a|---------------|
E|---------------|

Dan x 2
e|-----3-3---2----0----|
b|-3---3-3---3--x-2----|
g|-4---4-4---2--x-2----|
d|-4-x-5-5---0--x-2----|
a|-2-x-5-5------x-0----|
E|---x-3-3-------------|

verse part 2

Dan

e|---------------------------------------|
b|---------------------------------------|
g|-4-x-4-4------------7-x--7-7-----------|
d|-4-x-4-4---5-x-5-5--7-x--7-7--7-x-7-7--|
a|-2-x-2-2---5-x-5-5--5-x--5-5--7-x-7-7--|
E|-2-x-2---2-3-x-3-3------------5-x-5-5--|

Dan
e|----|
b|----|
g|-9\-|
d|-9\-|
a|-9\-|
E|-7\-|

Brad dpoes

Zok
e|------------------------------|
b|-15p14-----------15p14--------|
g|-------14~------------11~/9---|
d|------------------------------|
a|------------------------------|
E|------------------------------|

Pre Chorus

Dan
e|--------------------------|
b|--------------------------|
g|--7-7-7-7-7---------------|
d|--7-7-7-7-7---7-7-7-7-7-7-|
a|--5-5-5-5-5---7-7-7-7-7-7-|
E|--------------5-5-5-5-5-5-|
pm *************************

Chorus

first time both
e|----------------------------------------------------------|
b|----------------------------------------------------------|
g|-----------------------------777777777777-----------------|
d|-999999999999--555555555555--777777777777--777777777777---|
a|-999999999999--555555555555--555555555555--777777777777---|
E|-777777777777--333333333333----------------555555555555---|

then

Zok
e|-------------------------------------------------------------------------------------------|
b|-15----15----15----15-15/17\15----15----15----15-17\19----19----19----17----17----17-------|
g|----14----14----14-------------14----14----14----------19----19----19----18----18----18----|
d|-------------------------------------------------------------------------------------------|
a|-------------------------------------------------------------------------------------------|
E|-------------------------------------------------------------------------------------------|

Dan
e|----------------------------------------------------------|
b|----------------------------------------------------------|
g|-----------------------------777777777777-----------------|
d|-999999999999--555555555555--777777777777--777777777777---|
a|-999999999999--555555555555--555555555555--777777777777---|
E|-777777777777--333333333333----------------555555555555---|


Solo

Dan plays verse

Zok
e|---------------------------------------------|
b|-----15~-------------------------------------|
g|-/14-14~--14/16-1616-16\14-14\11-9/11-9-7~---|
d|---------------------------------------------|
a|---------------------------------------------|
E|---------------------------------------------|

e|------------------------------------------------|
b|-----15~----------------------------------------|
g|-/14-14~--14/16-1616-16\14-14\11-18/16-14-16~---|
d|------------------------------------------------|
a|------------------------------------------------|
E|------------------------------------------------|

post solo

zok
e|--------------5--|
b|-----3-----7--5--|
g|---4---7-7----6--|
d|-5-----5------7--|
a|--------------7--|
E|--------------5--|

then both build up with
e|----------------------------------|
b|----------------------------------|
g|------------------7-7-7-----------|
d|-5-5-5-5-5-5-5-5--7-7-7--7-7-7-7--|
a|-5-5-5-5-5-5-5-5--5-5-5--7-7-7-7--|
E|-3-3-3-3-3-3-3-3---------5-5-5-5--|

Chorus

Piano bit, but these chords work

e|-7----3---------5---|
b|-7----3----5----5---|
g|-7----4----5----6---|
d|-9----5----5----7---|
a|-9----5----7----7---|
E|-7----3---------5---|

Chorus

Zok
e|-------------------------------------------------------------------------------------------|
b|-15----15----15----15-15/17\15----15----15----15-17\19----19----19----17----17----17-------|
g|----14----14----14-------------14----14----14----------19----19----19----18----18----18----|
d|-------------------------------------------------------------------------------------------|
a|-------------------------------------------------------------------------------------------|
E|-------------------------------------------------------------------------------------------|

Dan
e|----------------------------------------------------------|
b|----------------------------------------------------------|
g|-----------------------------777777777777-----------------|
d|-999999999999--555555555555--777777777777--777777777777---|
a|-999999999999--555555555555--555555555555--777777777777---|
E|-777777777777--333333333333----------------555555555555---|


Outro

Dan x 2
e|-----3-3---2----0----|
b|-3---3-3---3--x-2----|
g|-4---4-4---2--x-2----|
d|-4-x-5-5---0--x-2----|
a|-2-x-5-5------x-0----|
E|---x-3-3-------------|

Zok x 2
e|---------------|
b|--------15~~---|
g|----/14--------|
d|---------------|
a|---------------|
E|---------------|
Tap to rate this tab
# A B C D E F G H I J K L M N O P Q R S T U V W X Y Z