Song name
# A B C D E F G H I J K L M N O P Q R S T U V W X Y Z

Gyroscope - Baby Im Getting Better tab

-------------------------------------------------------------------------------
	                    BABY I'M GETTING BETTER - Gyroscope
-------------------------------------------------------------------------------
Tabbed by: lachie_45

Tuning: eBGDAE

.:Intro-Verse:.

Guitar 1

e|-------------|    ---0---|
B|-------------|    ---1---|
G|-------------|    ---2---|
D|----2-----3--|    ---2---|
A|--3-----3----|    ---0---|
E|-------------|etc -------|
                       Am

e|-------------|    ---0----0------|
B|-------------|    ---1------1----|
G|-------------|    ---2--------2--|
D|----2-----3--|    ---2-----------|
A|--3-----3----|    ---0-----------|
E|-------------|etc ---------------|
                       Am


Guitar 2 - Come in at 0:39

e|---0*------0*---|
B|---1*------1*---|
G|---0*------0*---|
D|---2*------3*---|
A|---3*------3*---|
E|----------------| Repeat
     C      Fmaj9


.:Lead In:.

e|--0*---3---|
B|--1*---3---|
G|--2*---0---|
D|--2*---0---|
A|--0*---2---|
E|-------3---|
    Am   G


.:Chorus:.

e|---------------------------|
B|---------------------------|
G|--5*--5*--2*---------------|
D|--5*--5*--2*--5*--3*--5*---|
A|--3*--2*--0*--5*--3*--5*---|
E|--------------3*--1*--3*---| Repeat
    C  C/B  A   G   F   G

Alternative you can use proper/major chords
As opposed to power/5th chords
(ie C, C/B, Am, G, F, G)
Depends what sound you like.
     

.:Bridge:.

"Do Do Do Do Do....etc"

e|--0*--0*--1*--3*-------|
B|--1*--1*--1*--3*-------|
G|--0*--2*--1*--4*-------|
D|--2*--2*--3*--5*-------|
A|--3*--0*--3*--5*-------|
E|----------1*--3*-------|
    C   Am  Fm  G

.:Solo:.

e|----------------------------------------|
B|----------------------------------------|
G|-12---10---14---12---16---17---19/20/19-|
D|----------------------------------------|
A|-10---8----12---10---14---15---17/18/17-|
E|----------------------------------------|
   x8   x8   x8   x8   x3   x8

e|----------------------------------------|
B|----------------------------------------|
G|-16---17---19/20/19 --17---16---21---19-|
D|----------------------------------------|
A|-14---15---17/18/17---15---14---19---17-|
E|----------------------------------------|
   x3   x8              x8   x8   x8   x8

e|----------------------------------------|
B|----------------------------------------|
G|-16---17---19/20/19--16---17---19/20/19-|
D|----------------------------------------|
A|-14---15---17/18/17--14---15---17/18/17-|
E|----------------------------------------|
   x3   x8             x3   x8


.:Outro:.

Strum C
End on C
 


************************************

| /   slide up
| \   slide down
| *   play many of (listen to song to work out timing)
| h   hammer-on
| p   pull-off
| ~   vibrato
| +   harmonic
| x   Mute note
| b   Bend

************************************
Tap to rate this tab
 
# A B C D E F G H I J K L M N O P Q R S T U V W X Y Z