Song name
# A B C D E F G H I J K L M N O P Q R S T U V W X Y Z

Gyroscope - Fast Girl tab

----------------------------------------------------------------------------
			     FAST GIRL - Gyroscope
----------------------------------------------------------------------------
Tabbed by: Luke
Email:chuckmasterofpuke@hotmail.com

Tuning: standard

verse
|-----------7----7---7---|
|--8-----8--8----8---7---|
|--9-----9--9----9---9---|
|--9-----9--9----9---9---|
|--7-----7-----------7---|
|------------------------|

interlude
|-------------------------------------------------------------------|
|-------------------------------------------------------------------|
|--2-2-2-2-2-2-2-2-2-2-2-2-2-2-2-2----------------------------------|
|--2-2-2-2-2-2-2-2-2-2-2-2-2-2-2-2-5-5-5-5-5-5-5-5-5-5-5-5-5-5-5-5--|
|--0-0-0-0-0-0-0-0-0-0-0-0-0-0-0-0-5-5-5-5-5-5-5-5-5-5-5-5-5-5-5-5--|
|----------------------------------3-3-3-3-3-3-3-3-3-3-3-3-3-3-3-3--|

chorus
|------------------------------------|
|------------------------------------|
|------------------------------------|
|--2-2--5---5\10--1010--5--5-5--5\7--|
|--2-2--5---5\10--1010--5--5-5--5\7--|
|--0-0--3---3\8---8-8---3--3-3--3\5--|

bridge
|----------------------------------|
|----------------------------------|
|----------------------------------|
|-----------------2-2-2-2-2-2-2-2--|
|-2-2-2-2-2-2-2-2-0-0-0-0-0-0-0-0--|
|-0-0-0-0-0-0-0-0------------------|

|-------------------------------------------|
|-------------------------------------------|
|--5-5--x-x--5-5-5-x-x-5-5-5-x-x-5-5-5-5-5--|
|--5-5--x-x--5-5-5-x-x-5-5-5-x-x-5-5-5-5-5--|
|--3-3--x-x--3-3-3-x-x-3-3-3-x-x-3-3-3-3-3--|
|-------------------------------------------|

|-----------------------------------|
|-----------------------------------|
|-----------------------------------|
|--5-5-5-5-5-5-5-5-7-7-7-7-7-7-7-7--|
|--5-5-5-5-5-5-5-5-7-7-7-7-7-7-7-7--|
|--3-3-3-3-3-3-3-3-5-5-5-5-5-5-5-5--|


|--0-----0------0------|
|----3-----3-----3-----|
|------0-----0----0----|
|----------------------|
|----------------------|
|----------------------|

| /  slide up
| \  slide down
| h  hammer-on
| p  pull-off
| ~  vibrato
| +  harmonic
| x  Mute note
============================================================================
Tap to rate this tab
 
# A B C D E F G H I J K L M N O P Q R S T U V W X Y Z