Song name
# A B C D E F G H I J K L M N O P Q R S T U V W X Y Z

Gyroscope - Skill Degree tab

Hey hows it goin i tabbed this song because there was no skill degree tab when i wanted 
play it.

Tabbed by :Carter (liquid fingerz)

E-----------------------------------------------------------------------|
B------5-----5---0------------5----5---0------------4----4---0----------|
G--7-7---7-7---7-----------55---55---5----------5-5---5-5--5------------|
D-----------------------------------------------------------------------|
A-----------------------------------------------------------------------|
E-----------------------------------------------------------------------|


E-----------------------|
B------4---2---4-0------|
G--2-2---2---2----------|x3
D-----------------------|
A-----------------------|
E-----------------------|

Hope ya have fun
and Just a word of advice to beginners....have fun....play hard.....put in the 
believe in yourself
Tap to rate this tab
# A B C D E F G H I J K L M N O P Q R S T U V W X Y Z