Song name
# A B C D E F G H I J K L M N O P Q R S T U V W X Y Z

Gyroscope - Beware Wolf tab

Tabbed by: Dale Townsend
Artist: Gyroscope
Song: Beware Wolf

Good song, got most of the chords of the video clip but not sure bout chorus timing, but 
sure chords are write

TIP
Have whole six strings barred so then you can slide fingers up a string for chorus
INTRO/VERSE
E-6-6-6-6-6|6-6-6-6-6|6-6-6|
B-7-7-7-6-6|7-7-7-6-6|7-7-6|
G-8-8-8-8-8|8-8-8-8-8|8-8-8|
D-8-8-8-8-8|8-8-8-8-8|8-8-8|
A-6-6-6-6-6|6-6-6-6-6|6-6-6|
E----------|---------|-----|

E-6-6-6-6-6|6-6-6-6-6|6-6-6|
B-7-7-7-6-6|7-7-7-6-6|7-7-6|
G-8-8-8-8-8|8-8-8-8-8|8-8-8|
D-8-8-8-8-8|8-8-8-8-8|8-8-8|
A-6-6-6-6-6|6-6-6-6-6|6-6-6|
E----------|---------|-----|

E-----------------|
B-----------------|
G-7-7-7-7-5-5-5-5-|
D-8-8-8-8-6-6-6-6-|
A-8-8-8-8-6-6-6-6-|
E-6-6-6-6-4-4-4-4-|

******REAPEAT UNTIL CHORUS*****

CHORUS (NOT SURE IF THIS IS CORRECT BUT IT SOUNDS GOOD, AND DON'T KNOW WHETHER ITS A 
CHORD OR NOT can be played just)
E-6-6-6-4-4-4-4-x-2-2---2-2|
B-6-6-6-4-4-4-4-x-2-2---2-2|
G-8-8-8-6-6-4-4-x-2-2---2-2|
D-8-8-8-6-6-6-6-x-4-4---4-4|
A-6-6-6-4-4-6-6-x-4-4---4-4|
E-----------4-4-x-2-2---2-2|

x whatever


Verse 2
Is mostly same as verse one but the chord is just that for the rest of it
INTRO/VERSE
E-6-6-6-|
B-7-7-7-|
G-8-8-8-|
D-8-8-8-|
A-6-6-6-|
E-------|

Havn't done the rest, I just imrovise
cheers
dale
Tap to rate this tab
 
# A B C D E F G H I J K L M N O P Q R S T U V W X Y Z