Song name
# A B C D E F G H I J K L M N O P Q R S T U V W X Y Z

Gyroscope - 22 Of 3 tab

Band - Gyroscope
Song - 22 of 3
Album - Are You Involved?
Tuning - Standard

add me on myspace if you like gyroscope! or live in perth - http://www.myspace.com/39189845...
or msn - separation_of_church_and_skate@hotmail.com

this is my first tab, im pretty sure its right, there are afew bits of the lead missing, 
in verse two and three but you dont really need those.
enjoy!

*Intro/Verse One.
-Guitar 1
e|---------------------------------------------------|
B|---------------------------------------------------|
G|----4---5------------------------------------------|
D|--5---5---0-4-5-4----x8----------------------------|
A|---------------------------------------------------|
E|---------------------------------------------------|

- Guitar 2
e|---------------------------------------------------|
B|---------------------------------------------------|
G|---4-5---------------------------------------------|
D|-5-4-5---------------x8----------------------------|
A|-5-2-3---------------------------------------------|
E|-3-------------------------------------------------|
From the brightest side of this star,
I'll forget just who you are.
As you lie like lounge room lizards,
if you speak then I know where you are.


*Pre-Chorus 1
- Both Guitars
e|---------------------------------------------------|
B|---------------------------------------------------|
G|-5-4-----------------------------------------------|
D|-5-4-4-5------------x4-----------------------------|
A|-3-2-5-5-------------------------------------------|
E|-----2-3-------------------------------------------|
Each time you fix it, it just falls apart. (hock it in)
You won't get shit from a busted heart. (let me see)
Your goddamn money, I'll prove it to you. Let me see, let me through.


*Verse Two - Just Bass.
It's agreed we'll follow you,
Just as long as this compass is true.
If it's not, then I guess follow me.
Let me see, let me see, let me through.


*Pre-Chorus 2
- Both Guitars
e|---------------------------------------------------|
B|---------------------------------------------------|
G|-5-4-----------------------------------------------|
D|-5-4-4-5------------x4-----------------------------|
A|-3-2-5-5-------------------------------------------|
E|-----2-3-------------------------------------------|
Each time you fix it, it just falls apart. (hock it in)
You won't get shit for a busted heart. (let me see)
Your dirty money, I'll prove it to you. Let me see, let me through.


*Chorus 1
- Both Guitars
e|---------------------------------------------------|
B|---------------------------------------------------|
G|---5---7-------------------------------------------|
D|-2-5-5-7-----------x2------------------------------|
A|-2-3-5-5-------------------------------------------|
E|-0---3---------------------------------------------|
Take twenty two of three,
then we'll see how well she takes it, if she makes it.
Don't let her fall asleep,
click of fingers and she takes it, she fakes it.


*Post Chorus
-Both Guitars
e|---------------------------------------------------|
B|---------------------------------------------------|
G|--------------4-5----------------------------------|
D|-2----------5-4-5----------x2----------------------|
A|-2----------5-2-3----------------------------------|
E|-0-let ring-3--------------------------------------|
But we broke up oh so long ago.


*Verse 3 - Just bass
Cover me, and I'll cover you. I can sense that our company's true.
If it's not, then I guess we can leave. Let me see, let me through.


*Post Chorus 2
-Both Guitars
e|---------------------------------------------------|
B|---------------------------------------------------|
G|--------------4-5----------------------------------|
D|-2----------5-4-5----------x2----------------------|
A|-2----------5-2-3----------------------------------|
E|-0-let ring-3--------------------------------------|
But we broke up oh so long ago.


*Interlude
-Guitar 1
e|---------------------------------------------------|
B|---------------------------------------------------|
G|----4---5------------------------------------------|
D|--5---5---0-4-5-4----x4----------------------------|
A|---------------------------------------------------|
E|---------------------------------------------------|

- Guitar 2
e|---------------------------------------------------|
B|---------------------------------------------------|
G|---4-5---------------------------------------------|
D|-5-4-5---------------x4----------------------------|
A|-5-2-3---------------------------------------------|
E|-3-------------------------------------------------|


*Chorus 2
- Both Guitars
e|---------------------------------------------------|
B|---------------------------------------------------|
G|---5---7-------------------------------------------|
D|-2-5-5-7-----------x2------------------------------|
A|-2-3-5-5-------------------------------------------|
E|-0---3---------------------------------------------|
Take twenty two of three,
then we'll see how well she takes it, if she makes it.
Don't let her fall asleep,
click of fingers and she takes it, she fakes it.

*Post Chorus 3
-Both Guitars
e|---------------------------------------------------|
B|---------------------------------------------------|
G|--------------4-5----------------------------------|
D|-2----------5-4-5----------x2----------------------|
A|-2----------5-2-3----------------------------------|
E|-0-let ring-3--------------------------------------|
But we broke up oh so long ago.


*Outro - Play til end.
Guitar 1
e|---------------------------------------------------|
B|---------------------------------------------------|
G|----4---5------------------------------------------|
D|--5---5---0-4-5-4----------------------------------|
A|---------------------------------------------------|
E|---------------------------------------------------|

- Guitar 2
e|---------------------------------------------------|
B|---------------------------------------------------|
G|---4-5---------------------------------------------|
D|-5-4-5---------------------------------------------|
A|-5-2-3---------------------------------------------|
E|-3-------------------------------------------------|
From the brightest side of this star,
I'll forget just who you are.
As you lie like lounge room lizards,
if you speak then I know where you are.


any QuEsTionS???

www.myspace.com/gyroscope
www.myspace.com/falldownrecords
www.myspace.com/thedeclineband
check those link out? :)
Tap to rate this tab
# A B C D E F G H I J K L M N O P Q R S T U V W X Y Z