Song name
# A B C D E F G H I J K L M N O P Q R S T U V W X Y Z

Gyroscope - Sexxxy Acoustic tab

you can play along with the song, it sounds really good and this is a kickass song so i 
this is right, if not, you's can email me and blast me afterwards :)

e|---------------------------------------------------------------------------|
B|-9--8-----------------9--8-----------------4--3--------3--1--1b------------|
G|-------8--7--5--0-----------8--7--5--0-----------3-------------------------|
D|---------------------------------------------------------------------------|
A|---------------------------------------------------------------------------|
E|---------------------------------------------------------------------------|
repeat so-so times til necessary

e|---------------------------------------------------------------------------|
B|-8----------------8----------------8-----------4--3------3--1--1b----------|
G|----8--7--5----------8--7--5----------8--7--5--------3---------------------|
D|---------------------------------------------------------------------------|
A|---------------------------------------------------------------------------|
E|---------------------------------------------------------------------------|

and that's all i have so far but if i figure out the rest i'll post it straight away :) 
Rockin', MaRia.

| b  bend
| /  slide up
| \  slide down
| h  hammer-on
| p  pull-off
| ~  vibrato
| +  harmonic
| x  Mute note
===============================================================================
Tap to rate this tab
 
# A B C D E F G H I J K L M N O P Q R S T U V W X Y Z