Song name
# A B C D E F G H I J K L M N O P Q R S T U V W X Y Z

H-blockx - Countdown To Insanity tab

b=one halftonestep down
A Riff  clean    (repeat 2x times)
E b----------------------------------------------------------------------|
B b----------------------------------------------------------------------|
G b----------------------------------------------------------------------|
D b---------4--2--4---------4--2--4----5---------------------------------|
A b--2---2-----------0---0-------------------5--4--0--2--2-2-2-----------|
E b---------------------------------------3---------------------0--2--5--|

E b-----------------------------------------------------|
B b-----------------------------------------------------|
G b-----------------------------------------------------|
D b---------4--2--4---------4--2--4----5----------------|
A b--2---2-----------0---0-------------------5--4--0--2-|
E b---------------------------------------3-------------|

Piano or Keybord part

C Chorus...  Distortion (2x)
E b-----------------------------------------|
B b-----------------------------------------|
G b-----------------------------------------|
D b---9--9------7--7----5--5---2--2---------|
A b---9--9------7--7----5--5---2--2---------|
E b---7--7------5--5----3--3---0--0---------|

C Chorus 2. part (3x)
E b-----------------------------------------|
B b-----------------------------------------|
G b-----------------------------------------|
D b---9--------7-------5------2-------------|
A b---9--------7-------5------2-------------|
E b---7--------5-------3------0-------------|

C Chorus End
E b-----------------------------------------|
B b-----------------------------------------|
G b-----------------------------------------|
D b---9-------7--------5--------------------|
A b---9-------7--------5--------------------|
E b---7-------5--------3--------------------|

Play it:

A
Pause
C
A
Pause(Keyboard plays)
C
A
A(short)
C
A until the end.

(The "playlist could be sometimes wrong. You have to find the right on yourself)
have fun with it.
Tap to rate this tab
 
# A B C D E F G H I J K L M N O P Q R S T U V W X Y Z