Song name
# A B C D E F G H I J K L M N O P Q R S T U V W X Y Z

Haden - None tab

E|-7------------------------5----------------------------------|
B|-------------------------------------------------------------|
G|---------9-------9-----------------7--------7----------------|
D|---9--7----9--7-----9--7-----7--5-----7--5-----7--5----------|
A|-------------------------------------------------------------|
E|-------------------------------------------------------------|

E|-7------------------------5-5--------------------------------|
B|-------------------------------------------------------------|
G|---------9-------9-----------------7--------7----------------|
D|---9--7----9--7-----9--7-----7--5-----7--5-----7--5----------|
A|-------------------------------------------------------------|
E|-------------------------------------------------------------|
Tap to rate this tab
 
# A B C D E F G H I J K L M N O P Q R S T U V W X Y Z