Song name
# A B C D E F G H I J K L M N O P Q R S T U V W X Y Z

Hadouken - Get Smashed Gate Crash tab

Intro
 . . . . . . PM . . . . . . . . . . . . . . .PM. . . . . . .
|---------------------------|-------------------------------|
|---------------------------|-------------------------------|
|--666--------666-----------|--666-------666------9-6-7-6---|
|-------76--------76--------|-------76--------76--9-6-7-6---|
|--------------------76-----|---------------------7-4-5-4---|
|---------------------------|-------------------------------|Repeat 3 times

Verse
Same as intro but without palm muting.

Chorus
|----------------------------------|
|----------------------------------|
|--6-------9-----------------------|
|--6-------9-------9-------7-------|
|--4-------7-------9-------7-------|
|------------------7-------5-------|Reapeat 2 times
(Distorted sounds best)



This isn't their best song, but it's an easy tab.email with any corrections if u want.
Tabbed by i_wanna_b_the_minority@hotmail.co.uk.

Tap to rate this tab
# A B C D E F G H I J K L M N O P Q R S T U V W X Y Z