Song name
# A B C D E F G H I J K L M N O P Q R S T U V W X Y Z

Hadouken - Stop Time tab

This is the synth part played and repeated over the chorus, and throughout most of the 
song. Enjoy!
-gas5801

E------------15-------|------------15-17---------|
B------------------15-|------------------15-17---|
G--14-14--14----14----|--14-14--14---------------|
D---------------------|--------------------------|
A---------------------|--------------------------|
E---------------------|--------------------------|

E-----------15--------|-----------15-------------|
B--------15----15-17--|--------15----15-17-------|
G--16-17--------------|--16-17-------------------|
D---------------------|--------------------------|
A---------------------|--------------------------|
E---------------------|--------------------------|
Tap to rate this tab
 
# A B C D E F G H I J K L M N O P Q R S T U V W X Y Z