Song name
# A B C D E F G H I J K L M N O P Q R S T U V W X Y Z

Hadouken - That Boy That Girl tab

ok the last version wasn't that accurate so here's another version that sounds much better.

intro(ver.1)        intro(ver.2)
(correct version)   (the lazy un')
e------------------ -----------------4------------------------------------|
B------------------ ------------------------------------------------------|
G------------------ ------------------------------------------------------|
D------------------ ------------------------------------------------------|
A------------------ ------------------------------------------------------|
E----3/16/3-------- ----------3----3---3----------------------------------|

verse/chorus
e-------------------------------------------------------------------------|
B-------------------------------------------------------------------------|
G-------------------------------------------------------------------------|
D----------------------------*REPEAT*-------------------------------------|
A--55--88-5-5-887-5--55-------------------5-55555/6-66666/5-55555/6-66666-|
E--33--66-3-3-665-3--33-------------------3-33333/4-44444/3-33333/4-44444-|

and that's about it. have fun!
Tap to rate this tab
# A B C D E F G H I J K L M N O P Q R S T U V W X Y Z