Song name
# A B C D E F G H I J K L M N O P Q R S T U V W X Y Z

Hadouken - Liquid Lives tab

-------------------------------------------------------------------------------
			     LIQUID LIVES - Hadouken!
-------------------------------------------------------------------------------
Tabbed by: Danny Edwards
Email: danny_edwards@hotmail.co.uk

Video of the tab: http://www.youtube.com/watch?v=OUO8egca2p8

Tuning: Standard

Main Riff:

e|---------------------------------------------------------------------------|
B|---------------------------------------------------------------------------|
G|---------------------------------------------------------------------------| Play this
D|-99-88-7---99-88-7---99-88-7---77-66-5-------------------------------------| as many 
A|-99-88-7---99-88-7---99-88-7---77-66-5-------------------------------------| times as
E|-77-66-5---77-66-5---77-66-5---55-44-3-------------------------------------| needed

Chorus:

e|---------------------------------------|
B|---------------------------------------|
G|--5-x-5---8-x-8---10-x-10---13-13-13---|
D|--6-x-6---9-x-9---11-x-11---14-14-14---|
A|--6-x-6---9-x-9---11-x-11---14-14-14---|
E|--4-x-4---7-x-7---9--x-9----12-12-12---|  x3

e|---------------------------------------|
B|--5-x-5---8-x-8---10-x-10---13-x-13----|
G|--6-x-6---9-x-9---11-x-11---14-x-14----|
D|--6-x-6---9-x-9---11-x-11---14-x-14----|
A|--4-x-4---7-x-7---9--x-9----12-x-12----|
E|---------------------------------------|  


| x  Mute note
===============================================================================
Tap to rate this tab
# A B C D E F G H I J K L M N O P Q R S T U V W X Y Z