Song name
# A B C D E F G H I J K L M N O P Q R S T U V W X Y Z

Haemoth - Satanik Terrorism tab

Band:  Haemoth
Album: Satanik Terrorism
Song:  Satanik Terrorism

Copyright (c) Debemur Morti Productions
Version 1.0 - 18.7.2006

Transcribed By: Ville Nousiainen
Email:  blackened_81@hotmail.com

.  - palm mute           /  - slide up to
\  - slide down to       ~  - vibrato
h  - hammer on           b  - Bend
p  - pull off            Suffixes for bend
t  - tap                 f  - full bend    h - half bend
ph - pinched harmonic    q  - quarter bend t - tap bend
*  - see comment         ^  - Hold bend    r release bend
x  - Stuccatto           ~  - vibrato bend
,  - slight palm mute    () - ghost note, sustained note
"  - tremolo note        <> - Trill

Tuning E A D G B E


 Riff 1 x4
|-------------------------------------------------|
|-------------------------------------------------|
|-------------------------------------------------|
|-------------------------------------------------|
|----------------------1h2-------------1h2-1h0-5--|
|-00-00-00-00-00-00-00-----00-00-00-00---------3--|
  .. .. .. .. .. .. ..     .. .. .. ..

 Riff 2 x2
|--------------------------------------------------|
|--------------------------------------------------|
|--------------------------------------------------|
|--------------------------------------------------|
|----------------------1h2-------------1h2-1h0-5---|
|-0"-----------------------0"------------------3---|
  .                        .

 Riff 3 x4
|--------------------------------------------------|
|--------------------------------------------------|
|--------------------------------------------------|
|----------------------3"--------------3"--2"------|
|-2"-------------------1"--2"----------1"--0"--5"--|
|-0"-----------------------0"------------------3"--|

 Riff 4 x4
|-----------------------------------------------|
|-----------------------------------------------|
|-----------------------------------------------|
|----------------------3"-------------------3"--|
|-2"-------------------1"--2"----------5"---1"--|
|-0"-----------------------0"----------3"-------|

 Riff 5 x4
|----------------------------------------------|
|----------------------------------------------|
|----------------------------------------------|
|-------3"------------------3"--------8"--7"---|
|-2"----1"--2"----5"--2"----1"--2"----6"--5"---|
|-0"--------0"----3"--0---------0"-------------|

Riff 6 x4            1st    2nd        3rd time
|-------------------|---|---------|----------------------|
|-------------------|---|---------|----------------------|
|-------------------|---|---------|----------------------|
|-------------------|-5-|-10/9-10-|-5--------3--------3--|
|-------5-----8-----|-7-|--8/7-8--|-7--------5--------5--|
|-0-0-0---0-0---0-0-|---|---------|----0-0-0----0-0-0----|
  . . .   . .   . .                    . . .    . . .

 Riff 5 x4
 Riff 4 x4
 Riff 2 x10
 Riff 3 x4
 
 END
|-----|
|-----|
|-----|
|-----|
|--2--|
|--0--|

http://www.haemoth.fr.st/
Tap to rate this tab
# A B C D E F G H I J K L M N O P Q R S T U V W X Y Z