Guitaretab - guitar tabs
Song name
# A B C D E F G H I J K L M N O P Q R S T U V W X Y Z

Haggard Merle - Ramblin Fever tab

-----------------------------------------------------------------
		     RAMBLINí FEVER - Merle Haggard
-----------------------------------------------------------------
Tabbed by: Grace Kim
Email: 

Tuning: Standard

Intro
E-|--------------------|----------------------|
B-|--------------------|----------------------|
G-|--------------------|----------------------|
D-|--5-------5---5-7/9-|-8-7-5---7-5-5---5----|
A-|----7-5-7---7-------|-------7-------7------|
E-|--------------------|----------------------|
[ Tab from: http://www.guitaretab.com/h/haggard-merle/7699.html ]
E-|--------------------|----------------------|
B-|--------------------|----------------------|
G-|--------------------|--7-9-7---------------|
D-|-----5-7/9----------|--------9-7-5-7-------|
A-|-5-7----------------|----------------------|
E-|--------------------|----------------------|

E-|--------------------------------------------------|
B-|--------------------------------------------------|
G-|------------7-9-7---7-9-7---7-9-7-----------------|
D-|------5-7/9-------9-------9-------9\7-5-7-5-5---5-|
A-|--5-7-----------------------------------------7---|
E-|--------------------------------------------------|

E-|----------------------------------------------|
B-|----------------------------------------------|
G-|------------7-9-7-----------------------------|
D-|------5-7/9--------9\7-5-7------5-7/9-5-5-7-5-|
A-|--5-7----------------------5-7----------------|
E-|----------------------------------------------|


Related for Ramblin Fever tab