Song name
# A B C D E F G H I J K L M N O P Q R S T U V W X Y Z

Haggard - Herr Mannelig tab

HERR MANNELIG by Haggard


at 01:06

guitar 1:

e|-10h11p10----------------------------\
B|----------13-11-8-10-11-/13-11-10-8-- \
G|-------------------------------------  \
D|-------------------------------------   \
A|-------------------------------------    \
E|-------------------------------------     \
                                             2x
e|------------------------------10-----     /
B|-8-10-11-11-11-13-13-13p11-13----11--    /
G|-------------------------------------   /
D|-------------------------------------  /
A|------------------------------------- /
E|-------------------------------------/

at 01:31

guitar 1:

e|-10-10-11-10-------------------------------|
B|-------------13-11-11-8-10-11-/13-11-10-8--|
G|-------------------------------------------|
D|-------------------------------------------|
A|-------------------------------------------|
E|-------------------------------------------|
guitar 2:
e|-------------------------------------------|
B|-------------------------------------------|
G|-------------------------------------------|
D|----5~---------------------8------------5--|
A|----5~---------------------8------------5--|
E|----5~---------------------8------------5--|


guitar 1:
e|------------------------------10-13----|
B|-8-10-11-11-11-13-13-13p11-13----------|
G|---------------------------------------|
D|---------------------------------------|
A|---------------------------------------|
E|---------------------------------------|
guitar2:
e|---------------------------------------|
B|---------------------------------------|
G|---------------------------------------|
D|------8--------3--------------5~----8--|
A|------8--------3--------------5~----8--|
E|------8--------3--------------5~----8--|


guitar 1:
e|-10-10-11-10-------------------------------|
B|-------------13-11-11-8-10-11-/13-11-10-8--|
G|-------------------------------------------|
D|-------------------------------------------|
A|-------------------------------------------|
E|-------------------------------------------|
guitar 2:
e|-------------------------------------------|
B|-------------------------------------------|
G|-------------------------------------------|
D|----5~---------------------8------------5--|
A|----5~---------------------8------------5--|
E|----5~---------------------8------------5--|


guitar 1:
e|----------------------|
B|-8-10-11-13--11-10-8--|
G|----------------------|
D|----------------------|
A|----------------------|
E|----------------------|
guitar 2:
e|----------------------|
B|----------------------|
G|----------------------|
D|---------8---------5--|
A|---------8---------5--|
E|---------8---------5--|

etc...


NITRAM
05-27-10
07:26 PM
Tap to rate this tab
# A B C D E F G H I J K L M N O P Q R S T U V W X Y Z