Song name
# A B C D E F G H I J K L M N O P Q R S T U V W X Y Z

Hail Of Bullets - Ordered Eastward tab

-------------------------------------------------------------------------------
			     ORDERED EASTWARD - HAIL OF BULLETS
-------------------------------------------------------------------------------


Tabbed by: BMV
Email:bmvkillsit@yahoo.com

                     

Tuning: (B Standard) Low to High - B E A D F# B



Timing isn't really represented well, but if you've been playing guitar long enough to 
try this song you should be able to work with this. It is my first tab.

Both Guitars

b|------------------------------------------------------------|Riff 1(2x) 0:00-0:19
F|------------------------------------------------------------|
D|-/5~--4------------------------/-5~--4----------------------|
A|-/x~--x------------------------/-x~--x----------------------|
E|-/3~--2-22222222222222222222-x-/-3~--2-22222222222222222222-|
B|--------00000000000000000000-x---------00000000000000000000-|
        pm--------------------         pm--------------------

Both Guitars

b|------------------------------------|Riff 2(4x) 0:20-0:34
F|------------------------------------|
D|------------------------------------|
A|------------------------------------|
E|------------------------------------|
B|--7^-7--0000-0-0000-0-0000-0-000000-|
        pm-------------------------        
Both Guitars

b|------------------|End of Riff 2 0:35-0:44
F|------------------|
D|------------------|
A|------------------|
E|------2~---2-/-7~-|
B|--7^\-0~----------|

Both Guitars (1st-2nd/5th-7th times through riff)

b|-----------------------------------------|Riff 3(7x) 0:45-1:14
F|-----------------------------------------|
D|-----------------------------------------|
A|-----------------------------------------|
E|-7-----7h8-7-----7h8-10-----8h10-8-7-5h7-|
B|---0-0-------0-0--------0-0--------------|
   pm---     pm---      pm--- 
     
Guitar 2 (Harmonizes on the 3rd,4th times through riff 3)

b|---------------------------------------------|(2x) 0:51-0:59
F|---------------------------------------------|
D|---------------------------------------------|
A|-9-----9h10-9-----9h10-12-----10h12-10-9-7h9-|
E|---------------------------------------------|
B|---0-0--------0-0---------0-0----------------|
   pm---      pm---       pm---

Both Guitars

e|-----------------------------------------|Riff 4 leads into Verse(1x)
B|-----------------------------------------|
G|-----------------------------------------|
D|-----------------------------------------|
A|-----------------------------------------|
E|-0000000-0-0000-0-0000-0-000000-0-0000-0-|
 pm---------------------------------------

Verse Riff 5(1:15-2:25)

b|-----------------------------------------------------|
F|-----------------------------------------------------|
D|-9-----------------7-7-/-10-9------------------------|
A|-x-----------------x-x-/-x--x------------------------|
E|-7--77777777777777-5-5-/-8--7--77777777777777--8-6-8-|
B|----00000000000000-------------00000000000000--6-4-6-|
    pm--------------           pm-------------- 

b|----------------------------------------------------|(2x) Then riff 6
F|----------------------------------------------------|(2x) More and back to riff 6 again)
D|-9-----------------7-7-/-10-------------------------|
A|-x-----------------x-x-/-x--------------------------|
E|-7--77777777777777-5-5-/-8---8888888888555555666666-|
B|----00000000000000-----------6666666666333333444444-|
    pm--------------         pm----------------------

b|---------------------------| Riff 6(2x) Then back to riff 5
F|---------------------------| (2x) After riff 5 again, 
D|--------------------/12-11-| and hold last note until pick slide
A|-2~---/-7--10--2~---/x--x--|
E|-2~---/-5--8---2~---/10-9--|
B|-0~---/-5--8---0~----------|


Here's the brutal "war march" breakdown that spans 2:35-3:55

b|-----|
F|-----|
D|-----|
A|-----|
E|-x\--|
B|-x\--|
 pick scrape


b|--------------------------------------------------------------------------|
F|--------------------------------------------------------------------------|
D|-9------------------------------------------------------------------------|
A|-x------------------------------------------------------------------------|
E|-7--7-7-7--7777-7-7-7-7-7-7--7-----10-9--7-7-7-7777-7-7-7-7-7-7--7-----10-|
B|-x--0-0-0--0000-0-0-0-0-0-0----8-7-------0-0-0-0000-0-0-0-0-0-0----8-7----|
    pm-----------------------            pm----------------------


b|----------------------------------------|(2x) then to the next riff
F|----------------------------------------| 
D|-9--/--12-\--11-\--9--\--7--7/9--9------|(2x) again after the next riff
A|-x--/--x--\--x--\--x--\--x--x/x--x------|
E|-7--/--10-\--9--\--7--\--5--5/7--7------|
B|-x-------------------------------x------|
  


b|---------------------------------------------------|(1x) then back to last riff
F|---------------------------------------------------|
D|---------------------------------------------------|(2x) more to end breakdown
A|---------------------------------------------------|
E|-7-7-7-7777-7-7-7-7-7-7--7-----10--5-5-/-7-\-5-5-5-|
B|-0-0-0-0000-0-0-0-0-0-0----8-7-----3-3-/-5-\-3-2-3-|


Then back to verse riffs to end the song.


It's not exact, but it's damn close and sounds just fine.



| /  slide up
| \  slide down
| h  hammer-on
| p  pull-off
| ~  vibrato
| x  Mute note
| ^  Bend
===============================================================================
Tap to rate this tab
# A B C D E F G H I J K L M N O P Q R S T U V W X Y Z