Song name
# A B C D E F G H I J K L M N O P Q R S T U V W X Y Z

Hail Social - Get In The Car tab

(0:23)
E|--------------------------------|--------------------------------|
B|--------------------------------|--------------------------------|
G|5---5---5---5---6---6---6---6---|5---5---5---5---6---6---6---6---|
D|--6---6---6---6---6---6---6---6-|--6---6---6---6---6---6---6---6-|
A|--------------------------------|--------------------------------|
E|--------------------------------|--------------------------------|

(0:32)
E|--------------------------------|--------------------------------|
B|--------------------------------|--------------------------------|
G|6-8-10-8~-----------------------|6-8-10-8------------------------|
D|--------------------------------|-----------10-8-6---------------|
A|----------------998-998-998-998-|------------------8~^(8.5)^(8)--|
E|--------------------------------|--------------------------------|

(0:53)
E|--------------------------------|--------------------------------|
B|--------------------------------|--------------------------------|
G|5---5---5---5---6---6---6---6---|5---5---5---5---6---6---6---6---|
D|--6---6---6---6---6---6---6---6-|--6---6---6---6---6---6---6---6-|
A|--------------------------------|--------------------------------|
E|--------------------------------|--------------------------------|

E|--------------------------------|
B|--------------------------------|
G|--------------------------------|
D|4-3-4-3-4-3-4-3-6-4-6-4-8~----\\|
A|--------------------------------|
E|--------------------------------|

(1:06)
E|--------------------------------|--------------------------------|
B|--------------------------------|--------------------------------|
G|--3---3---3---3---6---6---5---5-|--3---3---3---3---10--10--8---8-|
D|--------------------------------|--------------------------------|
A|1---1---1---1---4---4---3---3---|1---1---1---1---8---8---8---6---|
E|--------------------------------|--------------------------------|

E|----------------8~------6~------|----------------8~------6~------|
B|--------------------------------|--------------------------------|
G|10~-----------------------------|--------------------------------|
D|--------------------------------|--------------------------------|
A|8~~-----------------------------|--------------------------------|
E|--------------------------------|--------------------------------|

(1:36) - Same as (0:32)

(2:05) - Same as (0:53)

(2:56)
E|--------------------------------|--------------------------------|
B|--------------------------------|--------------------------------|
G|--3-------3---1~----------------|--3-------3---1~----------------|
D|------3-------------------------|------3-------------------------|
A|1---1---1---1-------------------|1---1---1---1-------------------|
E|--------------------------------|--------------------------------|

(3:05)
E|--------------------------------|--------------------------------|
B|--------------------------------|--------------------------------|
G|--------------------------6---5-|--------------------------6---5-|
D|--3---3---3---3---3---3-4---3---|--3---3---3---3---3---3-4---3---|
A|1---1---1---1---1---1-----------|1---1---1---1---1---1-----------|
E|--------------------------------|--------------------------------|

Tap to rate this tab
# A B C D E F G H I J K L M N O P Q R S T U V W X Y Z