Song name
# A B C D E F G H I J K L M N O P Q R S T U V W X Y Z

Hail The Villain - Take Back The Fear tab

http://www.hailthevillain.com/

Hail The Villain
Take Back the Fear

Tabbed by nfrench7fold
Tuned drop B (B Gb B E Ab Db)


I didn't tab all of the song like the verse and the chorus
because it's the same thing repeating. I put the chords
so you guys can figure out the strum patterns for yourselves.
Also there sounds like a there could be a lead part in the chorus
but I can't tell for sure.


Intro
-------------------------------------------|
-------------------------------------------|
-------------------------------------------|
-0--0--2-3-5-2-3---0--0--2-3-5-2-3---0--0--|
-0--0--------------0--0--------------0--0--|
-0--0--------------0--0--------------0--0--|


---------------------------------------|
---------------------------------------|
---------------------------------------|
-0-0-2-3-5-2-3---0-0-2-3-5-2-3---------|
-0-0-2-3-5-2-3---0-0-2-3-5-2-3---------|
-0-0-2-3-5-2-3---0-0-2-3-5-2-3---------|

Verse
------------------------------------|
--3--3------------------------------|
--2--2------------------------------|
--0--0------------0--0--2-3-5-2-3---|
--0--0------------0--0--------------|
--0--0------------0--0--------------|


Chorus
----------------------------------|
----------------------------------|
--------------------10------------|
--------------------8-------------|
--------------------8-------------|
--------------------8-------------|
Don't wanna Take it away (don't want it anyway)...


----------------------------------|
----------------------------------|
-10-------------------12----------|
-8--------------------10----------|
-8--------------------10----------|
-8--------------------10----------|
Take it away from me, it's all that I believe


The bridge part (When it seems like everything is all a dream...)
is basically the same as the chorus. Now for the quiet part here
I think all the guitar is playing is harmonics
------------|
------------|
--[7]-------|
------[7]---|
------------|
------------|

And thats it. Party on and be excellent
Tap to rate this tab
 
# A B C D E F G H I J K L M N O P Q R S T U V W X Y Z