Hail The Villain - Glad To Be tab

Band: Hail The Villain
Song: Glad to Be
Tuning: Drop A#
Tabbed by: Tyler24031

intro/verse
A#----------8-----------|-----4-4-4-4-4-4-4-6-6-6-6-6-6-6--|
F-0-0-6-6-5-------------|-----4-4-4-4-4-4-4-6-6-6-6-6-6-6--|
A#----------------------|-----4-4-4-4-4-4-4-6-6-6-6-6-6-6--|
D#----------------------|----------------------------------|
G-----------------------|----------------------------------|
C-----------------------|----------------------------------|
                         P.M..............................

chorus
A#-------44-4-4-44-4-4-44-4-4-6666-----------------------|
F--1-----44-4-4-44-4-4-44-4-4-6666-----------------------|
A#-3(16x)44-4-4-44-4-4-44-4-4-6666-----------------------|
D#-3-----------------------------------------------------|
G--------------------------------------------------------|
C--------------------------------------------------------|
     P.M    .      .      .

bridge
A#-8-----11------6-----------------|
F--8(8x)-11(8x)--6(16x)------------|
A#-8-----11------6-----------------|
D#---------------------------------|
G----------------------------------|
C----------------------------------|

Outro
A#-8-8-8-8--8-8-8-8--44----|
F--8-8-8-8--8-8-8-8--44----|
A#-11111111-10101010-44----|
D#-------------------------|
G--------------------------|
C--------------------------|

This tab is very acurate, and close to how its played your gonna have to find the rythum 
for each note but once you do it'll sound like the song. please comment and rate. enjoy!
Tap to rate this tab
 
# A B C D E F G H I J K L M N O P Q R S T U V W X Y Z