Hail The Villain - Take Back The Fear tab

Hail the Villain- Take Back the Fear
Drop B tuning

I couldn't find an incredibly accurate tab for this song, the one i found did help alot 
but there were too many corrections to comment so here's my version:

Intro/main riff (first two bars):
e|----------------------------------------------------------------|
B|----------------------------------------------------------------|
G|----------------------------------------------------------------|
D|--0--0------------0--0------------0--0------------0--0-9/10-0---|  x3
A|--0--0-7-8-10-7-8-0--0-7-8-10-7-8-0--0-7-8-10-7-8-0--0-7/8--0---|
E|--0--0------------0--0------------0--0------------0--0------0---|

e|----------------------------------------------------------------|
B|----------------------------------------------------------------|
G|----------------------------------------------------------------|
D|--0--0------------0--0------------0--0------------0--0------0---| x1
A|--0--0------------0--0------------0--0------------0--0-2h3--0---|
E|--0--0-2-3-5-2-3--0--0-2-3-5-2-3--0--0-2-3-5-2-3--0--0-2h3--0---|
         * * * * *       * * * * *       * * * * *

Verse:
e|----------------------------------------------------------------|
B|----------------------------------------------------------------|
G|----------------------------------------------------------------|
D|--0--0------------0--0------------0--0------------0--0----------| x2
A|--0--0------------0--0------------0--0------------0--0----------|
E|--0--0------------0--0------------0--0------------0--0----------|

(play the first intro riff once)

Chorus (Just the chords, it's a simple strumming pattern):
e|-------------------------------------------------|
B|-------------------------------------------------|
G|---10------5---10------5---10------5---10---12---|
D|---8-------3---8-------3---8-------3---8----10---| x2
A|---8-------3---8-------3---8-------3---8----10---|
E|---8-------3---8-------3---8-------3---8----10---|

The trick with the chorus is on the (3335) chord, you only hit it 3 times while the 
singer says "taken a-" and you go back to (88810) before he finishes the word "away" so you 
hit (3335) on each syllable:
[ta-ken-a]<--one strum each

(play the first intro riff once)
(play verse)
(play the first intro riff once)
(play chorus)

I'll just call this the Bridge Transition thing:
e|-----------------------------------------------------------------|
B|-----------------------------------------------------------------|
G|--10------2----5---10------2----5---10------2----5---10------12--|
D|--8-------0----3---8-------0----3---8-------0----3---8-------10--|
A|--8-------0----3---8-------0----3---8-------0----3---8-------10--|
E|--8-------0----3---8-------0----3---8-------0----3---8-------10--|

i honestly can't figure out this part for sure, but it's VERY similar to the chorus, 
there's just one extra chord somewhere if you can figure it out please comment lol it would 
help me as well :)

Bridge Transition ending (kinda rings out while harmonics are played):
     |
     V        Bridge:
e|-------|  |---------| now this part doesn't even sound right without the
B|-------|  |---------| bass guitar, but all it is is natural harmonics
G|--10~--|  |--(7)----| while that chord rings out.
D|--8~---|  |----(7)--|
A|--8~---|  |---------|
E|--8~---|  |---------|

Intro (almost):
e|----------------------------------------------------------------|
B|----------------------------------------------------------------|
G|----------------------------------------------------------------|
D|--0--0------------0--0------------0--0------------0--0-9/10-----|
A|--0--0-7-8-10-7-8-0--0-7-8-10-7-8-0--0-7-8-10-7-8-0--0-7/8------|
E|--0--0------------0--0------------0--0------------0--0----------|

(chorus)
(Bridge Transition Thing without ending)
(chorus)

outro pt.1:
(first intro riff once)

outro pt.2:
e|-------------------------------------------------------------------|
B|-------------------------------------------------------------------|
G|-------------------------------------------------------------------|
D|--0--0------------0--0------------0--0------------0--0------0-0----|
A|--0--0------------0--0------------0--0------------0--0-2h3--0-0----|
E|--0--0-2-3-5-2-3--0--0-2-3-5-2-3--0--0-2-3-5-2-3--0--0-2h3--0-0----|
NOT PALM MUTED-------------------------------------------------------|

comments, corrections, and ratings welcomed, hope this helps :)
any questions or anything you can email me at Raygunn13@hotmail.com
Tap to rate this tab
 
# A B C D E F G H I J K L M N O P Q R S T U V W X Y Z