Song name
# A B C D E F G H I J K L M N O P Q R S T U V W X Y Z

Hail The Villain - Take Back The Fear tab

x2
e|-----------------------------------------------------------|
b|-----------------------------------------------------------|
g|-----------------------------------------------------------|
d|-0-------2-----0-------2-----0-------2-----0-----------0-0-|
a|-0-2-3-5---2-3-0-2-3-5---2-3-0-2-3-5---2-3-0-2-3-5-----0-0-|
d|-------------------------------------------------------0-0-|




e|---------------------------------------------------------|
b|---------------------------------------------------------|
g|---------------------------------------------------------|
d|-0-------2-----0-------2-----0-------2-----0-------2-----|
a|-0-2-3-5---2-3-0-2-3-5---2-3-0-2-3-5---2-3-0-2-3-5---2-3-|
d|---------------------------------------------------------|



e|-----------------------------------------------------------|
b|-----------------------------------------------------------|
g|-----------------------------------------------------------|
d|-0-------------0-------------0-------------0-----------0-0-|
a|-0-------0-----0-------0-----0-------0-----0-----------0-0-|
d|-0-2-3-5---2-3-0-2-3-5---2-3-0-2-3-5---2-3-0-2-3-5-----0-0-|
Tap to rate this tab
 
# A B C D E F G H I J K L M N O P Q R S T U V W X Y Z