Song name
# A B C D E F G H I J K L M N O P Q R S T U V W X Y Z

Haim - My Song 5 tab

-------------------------------------------------------------------------------
                             MY SONG 5 - Haim
-------------------------------------------------------------------------------
Tabbed by: Lauren Marquez
E-mail: lauren.marquez4@gmail.com

Tuning: Standard

Guitar doesn't come in until after the chorus but this is cool to play along with.

Synth(?) under the chorus (follows the melody):
e|----------------------------------------------------------------|
B|----------------------------------------------------------------|
G|----------------------------------------------------------------|
D|----------------------------------------------------------------|
A|----------------------------------------------------------------|
E|-0-7-7-7--5-5-5--5-3-5-7-5--3--0--0-0-0--3-3-3--5-3-5-7-5--3--0-|

e|---------------------------------|
B|---------------------------------|
G|---------------------------------|
D|-------------------------------2-|
A|-------------------------------2-|
E|-7-7-7--5-5-5--5-3-5-7-5--3--0-0-|


. . ."Honey I'm not your honey pie". . .

e|----------------------------------------------------------|
B|----------------------------------------------------------|
G|----------------------------------------------------------| x4
D|----------------------------------------------------------|
A|----------------------------------------------------------|
E|--/12-12-12-12-12--/10-10-10-10--0-3/5-5-5-5-3-0-5-3-0-0--|


BRIDGE CHORDS:
G          Am
If you want to see me baby please
                                                G
Been holding on for eternity, say you only want me
        Em
Missing you never led to much of anything
                                     G
If you wanna know, if you wanna show me
              Am
What it means, what it seemed, seemed to be

Held by a thread, tried to forget
         G              Em
But I'll never let it go

Honey I'm not your honey pie


(Then repeat the riff until the end of the song when there's one more chorus.)
Tap to rate this tab
 
# A B C D E F G H I J K L M N O P Q R S T U V W X Y Z